PrimaNota.ru - самый крупный в мире бесплатный архив песенных текстов, аккордов, табулатур и нот


Polar Bear Club - His Devotee - таба, видео

Регистрация Запомнить меня
Войти через:  Facebook Google Twitter Vk Yandex Mail.ru

Polar Bear Club - His Devotee - таба, видео

Печатать
Просмотров: 120
Уроки эстрадного вокала в Санкт-Петербурге
-----------------------------------------------------------------------------
                             HIS DEVOTEE - Polar Bear Club
-----------------------------------------------------------------------------

Tabbed by:jasongrinstead
E-mail: jasoncgrinstead@gmail.com

This is my first tab. I'd say it is about 90% correct, just missing a few parts... Most 
notably, the lead during the breakdown/bridge. Thanks, and enjoy!

Tuning: Standard

INTRO/VERSE 1 (rhythm) 0:00-

e|------------------0--------------0-------0--0-----------------------------|
B|-----0------------0--------------0--------------0-------------------------|
G|-----2------------2--------------6----------------------------------------|
D|----------2/4--------------------6----------------------------------------|
A|-0---------------------2/4-------4----------------------------------------|
E|--------------------------------------------------------------------------|

VERSE LEAD                               ALTERNATE ENDING

e|--------------------------------------|-----------------------------------|
B|-12-------------12~-------------------|-12--12~----10--10~----9~----------|
G|-----13~-----9----------13~-----------|-13--13~----11--11~----9~----------|
D|--------------------------------------|-----------------------------------|
A|--------------------------------------|-----------------------------------|
E|--------------------------------------|-----------------------------------|

CHORUS (Don't look, it's me...)

e|------x-----------x-----------x----------------x---------x----------------|
B|------x-----------x-----------x----------------x---------x----------------|
G|------x------4--4-x-----------x----------------x----4--4-x----------------|
D|-2--2-x------4--4-x------6--6-x-----------2--2-x----4--4-x----6--6~-------|
A|-2--2-x------2--2-x------7--7-x-----------2--2-x----2--4-x----7--7~-------|
E|-0--0-x-----------x------4--4-x-----------0--0-x---------x----4--4~-------|

Then play VERSE LEAD w/ ALTERNATE ENDING. Pick slide into VERSE 2

VERSE 2 (w/ distortion)

e|----------------------------0-----------0---------------------|
B|----------------------------0-----------0---------------------|
G|-2-------------------4/6----6----4/6----6---------------------|
D|-2-(x6)----4---------4/6----6----4/6----6---------------------|
A|-0---------4-(x6)----2/4----4----2/4----4---------------------|
E|-----------2--------------------------------------------------|

Play CHORUS again.

BRIDGE: This part I am unsure of, these chords sound correct but I can't pick out that 
lead part.
e|------------------------------|-------------------------------------------|
B|------------------------------|-------------------------------------------|
G|-2~------2~------2~------2~---|-------------4-----------------------------|
D|-2~------2~------2~------2~---|-2-----------4-(x6)------4-----------------|
A|-0~------0~------0~------0~---|-2-(x6)------2-----------4-(x10)-----------|
E|------------------------------|-0-----------------------2-----------------|

Play VERSE 2 until end of song.

END ON:

e|---0---|
B|---0---|
G|---6---|
D|---6---|
A|---4---|
E|-------|

************************************

| /   slide up
| \   slide down
| h   hammer-on
| p   pull-off
| ~   vibrato
| +   harmonic
| x   Mute note
| b   Bend
| pb  Pre-bend
| br  Bend release
| pbr Pre-bend release
| brb Bend release bend

************************************
Добавлено: 03.11.2013
Другие материалы по этой песне:
  • Аккорды и текст

Страница создана 03.11.2013
http://primanota.ru/polar-bear-club/his-devotee-chords.htm
Привет, Гость.
Предлагаем пройти революционный курс по гитаре.
Подарок от PrimaNota.Ru, забирай!