PrimaNota.ru - самый крупный в мире бесплатный архив песенных текстов, аккордов, табулатур и нот


Pokemon Games - May - бас-таба, видео

Регистрация Запомнить меня
Войти через:  Facebook Google Twitter Vk Yandex Mail.ru

Pokemon Games - May - бас-таба, видео

Печатать
Просмотров: 116
This is the theme song for the character, May, in the 3rd gen pokemon games. I retabbed the bass tab from the 
Tab-Pro version, but made a LOT of changes so that the tab is much easier to play off of with all the notes 
still there.

ALSO this bass line is played very fast and takes quite some time to get the hang of. Have fun!!


G|------------------------1311--13---13-13~----13----------------|
D|---1313----13~---- --11----------------------------------------| 
A|------------------13--------11--11---11---11-------------------|
E|-------1111----11----------------------------------------------|

G|---------------------------------------------------------------|
D|------10-------10-----11------9--------------------------------|
A|-----------------11------------11------------------------------|
E|---9~9--9-8/9~-----9~9--9--9-9---13----------------------------|

G|-------11------11------13--15--16--1715------------------------|
D|-----------------10--------------------------------------------|
A|---9~99--99-9-9----9/11--13--14--15----------------------------|
E|---------------------------------------11----------------------|

G|---------------------------------------------------------------|
D|------10-------10-----11-------9-------------------------------|
A|-----------------11--------------11----------------------------|
E|---9~9--9-8/9~-----9~9--9--9-99--------------------------------|

G|-------11------11---13--15--16--17-----------------------------|
D|---------------------------------------------------------------|
A|---9~99--99-9-9--999--13--14--15-------------------------------|
E|----------------------------------1615-------------------------|

G|---------11-11-------------11--11~-----------------------------|
D|---------------11----------------------------------------------|
A|---9-9~-8--------9p89-9~--9--99--------------------------------|
E|-------9----------------9---------12---------------------------|

G|---------------------------------------------------------------|
D|-----------10~10~10--------------------------------------------|
A|---8-8~------------11---8--8--68--8-7--------------------------|
E|-------9h11----------12------7---------------------------------|

G|-----------3-------------------5-------------------------------|
D|------------4--------------------------------------------------|
A|---6--6--46--6--5-6--6--3-6-66---------------------------------|
E|--------6-----6--------4---------------------------------------|

G|------------------------1311--13---13-13~----13----------------|
D|---1313----13~-------11----------------------------------------|  
A|------------------13--------11--11---11---11-------------------|
E|-------1111----11----------------------------------------------|

G|---------------------------------------------------------------|
D|------10-------10-----11------9--------------------------------|
A|-----------------11------------11------------------------------|
E|---9~9--9-8/9~-----9~9--9--9-9---13----------------------------|

G|-------11------11------13--15--16--1715------------------------|
D|-----------------10--------------------------------------------|
A|---9~99--99-9-9----9/11--13--14--15----------------------------|
E|---------------------------------------11----------------------|

G|---------------------------------------------------------------|
D|------10-------10-----11-------9-------------------------------|
A|-----------------11--------------11----------------------------|
E|---9~9--9-8/9~-----9~9--9--9-99--------------------------------|

G|-------11------11---13--15--16--17-----------------------------|
D|---------------------------------------------------------------|
A|---9~99--99-9-9--999--13--14--15-------------------------------|
E|----------------------------------1615-------------------------|

G|---------11-11-------------11--11~-----------------------------|
D|---------------11----------------------------------------------|
A|---9-9~-8--------9p89-9~--9--99--------------------------------|
E|-------9----------------9---------12---------------------------|

G|---------------------------------------------------------------|
D|-----------10~10~10--------------------------------------------|
A|---8-8~------------11---8--8--68--8-7--------------------------|
E|-------9h11----------12------7---------------------------------|

G|-----------3-------------------5-------------------------------|
D|------------4--------------------------------------------------|
A|---6--6--46--6--5-6--6--3-6-66---------------------------------|
E|--------6-----6--------4---------------------------------------|

G|------------------------1311--13---13-13~----13----------------|
D|---1313----13~---- --11----------------------------------------|
A|------------------13--------11--11---11---11-------------------|
E|-------1111----11----------------------------------------------|

| /  slide up
| \  slide down
| h  hammer-on
| p  pull-off
| ~  hold note
| +  harmonic
| x  Mute note

Добавлено: 21.07.2015
Вам также может быть интересно:
Другие материалы по этой песне:
  • Аккорды и текст

Страница создана 21.07.2015
http://primanota.ru/pokemon-games/may-chords.htm
Привет, Гость.
Предлагаем пройти революционный курс по гитаре.
Подарок от PrimaNota.Ru, забирай!