PrimaNota.ru - самый крупный в мире бесплатный архив песенных текстов, аккордов, табулатур и нот


Pojat - Lemmikkihautuumaa - таба, видео

Регистрация Запомнить меня
Войти через:  Facebook Google Twitter Vk Yandex Mail.ru

Pojat - Lemmikkihautuumaa - таба, видео

Печатать
Просмотров: 102
===========================Lemmikkihautuumaa================================

Kappale: Lemmikkihautuumaa (Pet Sematary)
Levy: Parhaat Biisit ja Paras Mahdollinen Show (1997)
Tekijät: Ramone/Rey, suom. san. M. Söderholm

http://pojat.niitti.net/


E |---------------------|
H |---3-------1-----1---|
G |---------0-----2-----|
D |-0---0-2-----3-----3-|
A |---------------------|
E |---------------------|

E |---------------------|
H |---3-------1-----1---|
G |---------0-----2-----|
D |-0---0-2-----3-----3-|
A |---------------------|
E |---------------------|


Mun kissani oli vainaa
E |---------------------|
H |---3-------1-----1---|
G |---------0-----2-----|
D |-0---0-2-----3-----3-|
A |---------------------|
E |---------------------|


Se meni päin etulokasuojaa
E |---------------------|
H |---3-------1-----1---|
G |---------0-----2-----|
D |-0---0-2-----3-----3-|
A |---------------------|
E |---------------------|


Mut mä kuulin paikasta
E |---------------------|
H |---3-------1-----1---|
G |---------0-----2-----|
D |-0---0-2-----3-----3-|
A |---------------------|
E |---------------------|


Joka herättäis kuolleista
E |---------------------|
H |---3-------1-----1---|
G |---------0-----2-----|
D |-0---0-2-----3-----3-|
A |---------------------|
E |---------------------|


Otin lapion ja saappaatkin, reppu selässä mä yöhön
E |-----------------------------------------------------------------|
H |-----------------------------------------------------------------|
G |-----------------------------------------------------------------|
D |-5-5-5-5-5-5-5-5-7-7-7-7-7-7-7-7-5-5-5-5-5-5-5-5-7-7-7-7-7-7-7-7-|
A |-3-3-3-3-3-3-3-3-5-5-5-5-5-5-5-5-3-3-3-3-3-3-3-3-5-5-5-5-5-5-5-5-|
E |-----------------------------------------------------------------|


kävelin
E |---------------------|
H |---------------------|
G |---------------------|
D |-3-3-3-3-3-3-3-3-5-5-|
A |-1-1-1-1-1-1-1-1-3-3-|
E |---------------------|


Noiduttuun luutarhaan mä vein kissan parhaan. Tänä yönä se tulee takaisin
E |-----------------------------------------------------------------|-----|
H |-----------------------------------------------------------------|-----|
G |-----------------------------------------------------------------|-----|
D |-7-7-7-7-7-7-7-7-----------------5-5-5-5-5-5-5-5-3-3-3-3-3-3-3-3-|-5-5-|
A |-5-5-5-5-5-5-5-5-3-3-3-3-3-3-3-3-3-3-3-3-3-3-3-3-1-1-1-1-1-1-1-1-|-3-3-|
E |-----------------1-1-1-1-1-1-1-1---------------------------------|-----|


Noiduttuun luutarhaan mä vein kissan parhaan. Tänä yönä se tulee takaisin
E |-----------------------------------------------------------------|
H |-----------------------------------------------------------------|
G |-----------------------------------------------------------------|
D |-7-7-7-7-7-7-7-7-----------------5-5-5-5-5-5-5-5-3-3-3-3-3-3-3-3-|
A |-5-5-5-5-5-5-5-5-3-3-3-3-3-3-3-3-3-3-3-3-3-3-3-3-1-1-1-1-1-1-1-1-|
E |-----------------1-1-1-1-1-1-1-1---------------------------------|



E |-----------------|
H |-----------------|
G |-----------------|
D |-5-5-5-5-5-5-5-5-|
A |-3-3-3-3-3-3-3-3-|
E |-----------------|


Sitten unessa sain varoituksen
E |---------------------|
H |---3-------1-----1---|
G |---------0-----2-----|
D |-0---0-2-----3-----3-|
A |---------------------|
E |---------------------|


Maa on paha kyllä tiesit sen
E |---------------------|
H |---3-------1-----1---|
G |---------0-----2-----|
D |-0---0-2-----3-----3-|
A |---------------------|
E |---------------------|


Luonnevikoja se varmaan saa
E |---------------------|
H |---3-------1-----1---|
G |---------0-----2-----|
D |-0---0-2-----3-----3-|
A |---------------------|
E |---------------------|


Raato hsiee ja suu kuolaa
E |---------------------|
H |---3-------1-----1---|
G |---------0-----2-----|
D |-0---0-2-----3-----3-|
A |---------------------|
E |---------------------|


Menin takaisin ja kaivoin sen montun auki mut kissaa nähnyt
E |-----------------------------------------------------------------|
H |-----------------------------------------------------------------|
G |-----------------------------------------------------------------|
D |-5-5-5-5-5-5-5-5-7-7-7-7-7-7-7-7-5-5-5-5-5-5-5-5-7-7-7-7-7-7-7-7-|
A |-3-3-3-3-3-3-3-3-5-5-5-5-5-5-5-5-3-3-3-3-3-3-3-3-5-5-5-5-5-5-5-5-|
E |-----------------------------------------------------------------|


en
E |---------------------|
H |---------------------|
G |---------------------|
D |-3-3-3-3-3-3-3-3-5-5-|
A |-1-1-1-1-1-1-1-1-3-3-|
E |---------------------|


Noiduttuun luu tarhaan mä vein kissan parhaan, tänä yönä se tulee takaisin
E |-----------------------------------------------------------------|-----|
H |-----------------------------------------------------------------|-----|
G |-----------------------------------------------------------------|-----|
D |-7-7-7-7-7-7-7-7-----------------5-5-5-5-5-5-5-5-3-3-3-3-3-3-3-3-|-5-5-|
A |-5-5-5-5-5-5-5-5-3-3-3-3-3-3-3-3-3-3-3-3-3-3-3-3-1-1-1-1-1-1-1-1-|-3-3-|
E |-----------------1-1-1-1-1-1-1-1---------------------------------|-----|


Noiduttuun luu tarhaan mä vein kissan parhaan, tänä yönä se tulee takaisin
E |-----------------------------------------------------------------|
H |-----------------------------------------------------------------|
G |-----------------------------------------------------------------|
D |-7-7-7-7-7-7-7-7-----------------5-5-5-5-5-5-5-5-3-3-3-3-3-3-3-3-|
A |-5-5-5-5-5-5-5-5-3-3-3-3-3-3-3-3-3-3-3-3-3-3-3-3-1-1-1-1-1-1-1-1-|
E |-----------------1-1-1-1-1-1-1-1---------------------------------|


E |-----------------|
H |-----------------|
G |-----------------|
D |-5-5-5-5-5-5-5-5-|
A |-3-3-3-3-3-3-3-3-|
E |-----------------|


E |------------------------------|
H |------------------------------|
G |------------------------------|
D |------------------------7-5-3-|
A |1--5--5-7-8-1--3-3-3--3-------|
E |------------------------------|


Nyt mä istun ja ootan vaan
E |---------------------|
H |---3-------1-----1---|
G |---------0-----2-----|
D |-0---0-2-----3-----3-|
A |---------------------|
E |---------------------|


Kynsi raapaisee ikkunaa
E |---------------------|
H |---3-------1-----1---|
G |---------0-----2-----|
D |-0---0-2-----3-----3-|
A |---------------------|
E |---------------------|


Kissa vainaa hiippailee
E |---------------------|
H |---3-------1-----1---|
G |---------0-----2-----|
D |-0---0-2-----3-----3-|
A |---------------------|
E |---------------------|


Selkäpiitaani karmaisee
E |---------------------|
H |---3-------1-----1---|
G |---------0-----2-----|
D |-0---0-2-----3-----3-|
A |---------------------|
E |---------------------|


Sudet ulvoo ja paistaa kuu, tänä yönä kamalaa 
E |-----------------------------------------------------------------|
H |-----------------------------------------------------------------|
G |-----------------------------------------------------------------|
D |-5-5-5-5-5-5-5-5-7-7-7-7-7-7-7-7-5-5-5-5-5-5-5-5-7-7-7-7-7-7-7-7-|
A |-3-3-3-3-3-3-3-3-5-5-5-5-5-5-5-5-3-3-3-3-3-3-3-3-5-5-5-5-5-5-5-5-|
E |-----------------------------------------------------------------|


tapahtuu
E |---------------------|
H |---------------------|
G |---------------------|
D |-3-3-3-3-3-3-3-3-5-5-|
A |-1-1-1-1-1-1-1-1-3-3-|
E |---------------------|


Noiduttuun luu tarhaan mä vein kissan parhaan, tänä yönä se tulee takaisin
E |-----------------------------------------------------------------|-----|
H |-----------------------------------------------------------------|-----|
G |-----------------------------------------------------------------|-----|
D |-7-7-7-7-7-7-7-7-----------------5-5-5-5-5-5-5-5-3-3-3-3-3-3-3-3-|-5-5-|
A |-5-5-5-5-5-5-5-5-3-3-3-3-3-3-3-3-3-3-3-3-3-3-3-3-1-1-1-1-1-1-1-1-|-3-3-|
E |-----------------1-1-1-1-1-1-1-1---------------------------------|-----|


Noiduttuun luu tarhaan mä vein kissan parhaan, tänä yönä se tulee takaisin
E |-----------------------------------------------------------------|
H |-----------------------------------------------------------------|
G |-----------------------------------------------------------------|
D |-7-7-7-7-7-7-7-7-----------------5-5-5-5-5-5-5-5-3-3-3-3-3-3-3-3-|
A |-5-5-5-5-5-5-5-5-3-3-3-3-3-3-3-3-3-3-3-3-3-3-3-3-1-1-1-1-1-1-1-1-|
E |-----------------1-1-1-1-1-1-1-1---------------------------------|



E |-----------------|
H |-----------------|
G |-----------------|
D |-5-5-5-5-5-5-5-5-|
A |-3-3-3-3-3-3-3-3-|
E |-----------------|


Jee jee jee, se tulee takaisin... [Tätä näin loppuun asti]
E |-----------------------------------------------------------------|
H |-----------------------------------------------------------------|
G |-----------------------------------------------------------------|
D |-7-7-7-7-7-7-7-7-5-5-5-5-5-5-5-5-3-3-3-3-3-3-3-3-5-5-5-5-5-5-5-5-|
A |-5-5-5-5-5-5-5-5-3-3-3-3-3-3-3-3-1-1-1-1-1-1-1-1-3-3-3-3-3-3-3-3-|
E |-----------------------------------------------------------------|
Добавлено: 23.03.2012
Вам также может быть интересно:
Другие материалы по этой песне:
  • Аккорды и текст

Страница создана 23.03.2012
http://primanota.ru/pojat/lemmikkihautuumaa-chords.htm
Привет, Гость.
Предлагаем пройти революционный курс по гитаре.
Подарок от PrimaNota.Ru, забирай!