PrimaNota.ru - самый крупный в мире бесплатный архив песенных текстов, аккордов, табулатур и нот


Poisonblack - Nothing Else Remains - текст песни, таба, видео

Регистрация Запомнить меня
Войти через:  Facebook Google Twitter Vk Yandex Mail.ru

Poisonblack - Nothing Else Remains - текст песни, таба, видео

Печатать
Просмотров: 147
Intro (part 1)

e|---------------------------------------------------------------------------|
B|---------------------------------------------------------------------------|
G|---------------------------------------------------------------------------|
D|---------------------------------------------------------------------------|
A|---------------------------------------------------------------------------|
E|------2-----3-2--------2-----3-2--------2-----3-2--------------------------|
B|-12---0-0-0-1-0---12---0-0-0-1-0---12---0-0-0-1-0---3---0-3-5-5-6-1--------|
   ~~     . .       ~~     . .       ~~      . .      ~

e|---------------------------------------------------------------------------|
B|---------------------------------------------------------------------------|
G|---------------------------------------------------------------------------|
D|---------------------------------------------------------------------------|
A|---------------------------------------------------------------------------|
E|------2-----3-2--------2-----3-2--------2-----3-2--------------------------|
B|-12---0-0-0-1-0---12---0-0-0-1-0---12---0-0-0-1-0---3---0-3-5-5-6-1--------|
   ~~     . .       ~~     . .       ~~      . .      ~


Strophe (part 2)

e|---------------------------------------------------------------------------|
B|---------------------------------------------------------------------------|
G|---------------------------------------------------------------------------|
D|---------------------------------------------------------------------------|
A|---------------------------------------------------------------------------|
E|-2-3---2------2-3---2------2-3---2------2-3---2-3-5---3-2-3---2------------|
B|-0-1---0------0-1---0------0-1---0------0-1---0-1-3---1-0-1---0------------|
   .            .            .            .       .

e|---------------------------------------------------------------------------|
B|---------------------------------------------------------------------------|
G|---------------------------------------------------------------------------|
D|---------------------------------------------------------------------------|
A|---------------------------------------------------------------------------|
E|-2-3---2------2-3---2------2-3---2------2-3---2-3-5---3-2-3---2------------|
B|-0-1---0------0-1---0------0-1---0------0-1---0-1-3---1-0-1---0------------|
   .            .            .            .       .

e|---------------------------------------------------------------------------|
B|---------------------------------------------------------------------------|
G|---------------------------------------------------------------------------|
D|---------------------------------------------------------------------------|
A|---------------------------------------------------------------------------|
E|------2-----3-2--------2-----3-2--------2-----3-2--------------------------|
B|-12---0-0-0-1-0---12---0-0-0-1-0---12---0-0-0-1-0---3---0-3-5-5-6-1--------|
   ~~     . .       ~~     . .       ~~      . .      ~

e|---------------------------------------------------------------------------|
B|---------------------------------------------------------------------------|
G|---------------------------------------------------------------------------|
D|---------------------------------------------------------------------------|
A|---------------------------------------------------------------------------|
E|------2-----3-2--------2-----3-2--------2-----3-2--------------------------|
B|-12---0-0-0-1-0---12---0-0-0-1-0---12---0-0-0-1-0---3---0-3-5-5-6-1--------|
   ~~     . .       ~~     . .       ~~      . .      ~

e|---------------------------------------------------------------------------|
B|---------------------------------------------------------------------------|
G|---------------------------------------------------------------------------|
D|---------------------------------------------------------------------------|
A|---------------------------------------------------------------------------|
E|-2-3---2------2-3---2------2-3---2------2-3---2-3-5---3-2-3---2------------|
B|-0-1---0------0-1---0------0-1---0------0-1---0-1-3---1-0-1---0------------|
   .            .            .            .       .

e|---------------------------------------------------------------------------|
B|---------------------------------------------------------------------------|
G|---------------------------------------------------------------------------|
D|---------------------------------------------------------------------------|
A|---------------------------------------------------------------------------|
E|-2-3---2------2-3---2------2-3---2------2-3---2-3-5---3-2-3---2------------|
B|-0-1---0------0-1---0------0-1---0------0-1---0-1-3---1-0-1---0------------|
   .            .            .            .       .

e|---------------------------------------------------------------------------|
B|---------------------------------------------------------------------------|
G|---------------------------------------------------------------------------|
D|---------------------------------------------------------------------------|
A|---------------------------------------------------------------------------|
E|------2-----3-2--------2-----3-2--------2-----3-2--------------------------|
B|-12---0-0-0-1-0---12---0-0-0-1-0---12---0-0-0-1-0---3---0-3-5-5-6-1--------|
   ~~     . .       ~~     . .       ~~      . .      ~

e|---------------------------------------------------------------------------|
B|---------------------------------------------------------------------------|
G|---------------------------------------------------------------------------|
D|---------------------------------------------------------------------------|
A|---------------------------------------------------------------------------|
E|------2-----3-2--------2-----3-2--------2-----3-2--------------------------|
B|-12---0-0-0-1-0---12---0-0-0-1-0---12---0-0-0-1-0---3---0-3-5-5-6-1--------|

e|---------------------------------------------------------------------------|
B|---------------------------------------------------------------------------|
G|---------------------------------------------------------------------------|
D|---------------------------------------------------------------------------|
A|-7---7-7-7-7-7-7-7-7-7-7-7-7-7-7-5---5-5-5-5-5-5-5-------------7-----------|
E|-5---5-5-5-5-5-5-5-5-5-5-5-5-5-5-3---3-3-3-3-3-3-3-2---------2-5-----------|
B|---------------------------------------------------0---0-0-0-0-------------|
                                                         . . .

Refrain (part 3)

e|---------------------------------------------------------------------------|
B|---------------------------------------------------------------------------|
G|---------------------------------------------------------------------------|
D|---------------------------------------------------------------------------|
A|---------------------------------7---7-7-7-7-7-7-5---5-5-------------------|
E|-2---2-2-2-2-2-2-2-2-2-2-2-2-2-2-5---5-5-5-5-5-5-3---3-3-7---7-7-----------|
B|-0---0-0-0-0-0-0-0-0-0-0-0-0-0-0-------------------------5---5-5-----------|
                                                         .       .
e|---------------------------------------------------------------------------|
B|---------------------------------------------------------------------------|
G|---------------------------------------------------------------------------|
D|---------------------------------------------------------------------------|
A|---------------------------------5---5-5-5-5-5-5-7---7-7-7-7-7-7-----------|
E|-2---2-2-2-2-2-2-2-2-2-2-2-2-2-2-3---3-3-3-3-3-3-5---5-5-5-5-5-5-----------|
B|-0---0-0-0-0-0-0-0-0-0-0-0-0-0-0-------------------------------------------|


Bridge (part 4)

e|---------------------------------------------------------------------------|
B|---------------------------------------------------------------------------|
G|---------------------------------------------------------------------------|
D|---------------------------------------------------------------------------|
A|---------------------------------------------------------------------------|
E|-3-2---3-2---3-2-3-2---3-2---3-2-3-2---3-2---3-2-3-2-------------2-2-------|
B|-1-0-0-1-0-0-1-0-1-0-0-1-0-0-1-0-1-0-0-1-0-0-1-0-1-0-0-0-0-0-0-0-0-0-------|
       .     .         .     .         .     .         . . . . . .

Solo (part 5)

The solo is missing, maybe I put it later into the internet yet. Guitar twho is 
the refrain (part 3).

Outro

Repeat the intro (part 1)


************************************
| /   slide up
| \   slide down
| h   hammer-on
| p   pull-off
| ~   vibrato
| +   harmonic
| x   Mute note
| b   Bend
| pb  Pre-bend
| br  Bend release
| pbr Pre-bend release
| brb Bend release bend
Добавлено: 24.06.2012
Другие материалы по этой песне:
  • Аккорды и текст

Страница создана 21.03.2012
http://primanota.ru/poisonblack/nothing-else-remains-chords.htm
Привет, Гость.
Предлагаем пройти революционный курс по гитаре.
Подарок от PrimaNota.Ru, забирай!