PrimaNota.ru - самый крупный в мире бесплатный архив песенных текстов, аккордов, табулатур и нот


Poison - Unskinny Bop - аккорды и текст, таба, бас-таба, видео

Регистрация Запомнить меня
Войти через:  Facebook Google Twitter Vk Yandex Mail.ru

Poison - Unskinny Bop - аккорды и текст, таба, бас-таба, видео

Печатать
Просмотров: 319
Авторы: Bret Michaels, C.C. DeVille, Rikki Rockett, Bobby Dall

Unskinny Bop
Poison
UNSKINNY BOP
by Poison
Transcribed by: bighabit69@iamwasted.com

Chords
          A5                   G5                   D5
      x 0 2 2 x x          3 x 0 0 3 3          x x 0 2 3 x

 Intro

 

|-----------------------------------||-------------------|
|-----------------------------------||o------------------|
|-----------x-pb8r()b6-()--||------------2------|
|-----------------------------------||--2-----2-4--------|
|-0pb4r=(0)-------------------------||o-0-3h4------------|
|-----------------------------------||-------------------|


                  PM
|-------------------3--3-2-(2)---||
|-------------------3--3-3-(3)--o||
|-4p2p0---------2----------------||
|-------4p2p0--------------------||
|-------------4---0-------------o||
|--------------------------------||


 1st Verse
                                     PM
|------------------|-------------------3--3-2-(2)---|
|------------------|-------------------3--3-3-(3)---|
|-----------2------|-4p2p0---------2----------------|
|-2-----2-4--------|-------4p2p0--------------------|
|-0-3h4------------|-------------4---0--------------|
|------------------|--------------------------------|


                                     PM
|------------------|-------------------3--3-2-(2)--|------------------|
|------------------|-------------------3--3-3-(3)--|------------------|
|-----------2------|-4p2p0---------2---------------|-----------2------|
|-2-----2-4--------|-------4p2p0-------------------|-2-----2-4--------|
|-0-3h4------------|-------------4---0-------------|-0-3h4------------|
|------------------|-------------------------------|------------------|


                  PM
|-------------------3--3-2-(2)--|------------------|
|-------------------3--3-3-(3)--|------------------|
|-4p2p0---------2---------------|-----------2------|
|-------4p2p0-------------------|-2-----2-4--------|
|-------------4---0-------------|-0-3h4------------|
|-------------------------------|------------------|


                  PM
|-------------------3--3-2-(2)---||
|-------------------3--3-3-(3)---||
|-4p2p0---------2----------------||
|-------4p2p0--------------------||
|-------------4---0--------------||
|--------------------------------||


 Pre-Chorus
  $
            PM       PM                PM    PM    PM       ~~~~~~~~
|------------------------------------|-------------------------------|
|------------------------------------|-------------------------------|
|------------------------------------|-------------------------------|
|-------------5b5.5------------------|---------------------[5]-(5)p0-|
|-------7p0------------7p0-----------|---7p0---7p5---7p0-------------|
|-0-(0)-----0--------0-----3-3-(3)-3-|-0-----0-----0-----0-----------|
|
| Gtr II
|------------------------------------|-------------------------------|
|------------------------------------|-------------------------------|
|------------------------------------|-------------------------------|
|------------------------------------|-------------------------------|
|------------------------------------|-------------------------------|
|------------------------------------|-------------------------------|


|-------------------------------------|
|-------------------------------------|
|-------------------------------------|
|-------------------------------------|
|---7px---5s7---7p0-------------------|
|-0-----0-----0-----0-3-(3)----3------|
|
|                              ~~~~~
|-------------------------------------|
|-----------------------17----17------|
|-----------------------19b21-19b21---|
|-------------------------------------|
|-------------------------------------|
|-------------------------------------|


                              Chorus
|---------------------------||-------------------------------|--------------|
|---------------------------||-------------------------------|------3--3----|
|---------------------------||-2---------2-4b6-4-2-4b6r(4)p2-|-0----2--2----|
|------------------[5]-(5)--||-2-----2-4---------------------|-0----0--0-0--|
|---7p0---5----7p0----------||-0-3h4-------------------------|--------------|
|-0-----0----0--------------||-------------------------------|-3------------|


                          ~
|-----------------------------|-----------|-----------------------------|
|-----------------------------|------3----|-----------------------------|
|-2-----2-4p2-[4]b6==[4]r-2-0-|-0----2----|-2---------2-4b6-[4]-[2]-[4]-|
|-2-----2-------------------0-|-0----0----|-2-----2-4-------------------|
|-0-3h4-----------------------|-----------|-0-3h4-----------------------|
|-----------------------------|-3---------|-----------------------------|


                        
|---------2-3-4-|-----------------|
|-------3-3-3-3-|-----------------|
|-0--0--2-------|-----------------|
|-0--0--0-------|-9-9-9-9-9-9-9-9-|
|---------------|-7-7-7-7-7-7-7-7-|
|-3--3----------|-0-0-0-0-0-0-0-0-|


                          2nd Verse
                    ~
|-----------------------||-----------------------------|
|-----------------------||--------------x-2--x-2---x---|
|-----------------------||-----------2--x-2--x-2---x---|
|-----------------------||-2-----2-4-----------2-------|
|-----------------------||-0-3h4-----------------------|
|-x-2-x-3-x-4-(4)-x-5---||-----------------------------|


|---------------3--3-2-(2)-2---|--------------------------------|
|-x-2--x-x-2--x-3--3-3-(3)-3-3-|---2--x-2-2--x-x-2--x-2-x-------|
|-x-2--x-x-2--x--------------3-|-2-2--x-2-2--x-x-2--x-2-x-------|
|---2--------------------------|-2------2-----------------------|
|------------------------------|--------------------------------|
|------------------------------|--------------------------------|
|
| Gtr II
|------------------------------|--------------------------------|
|------------------------------|------------------------x-17----|
|------------------------------|------------------------x-19b21-|
|------------------------------|--------------------------------|
|------------------------------|--------------------------------|
|------------------------------|--------------------------------|


|----------------------------------------------------------------|
|----------------------------------------------------------------|
|----------------------------------------------------------------|
|----------------------------------------------------------------|
|----------------------------------------------------------------|
|----------------------------------------------------------------|
|
|                                                 ~~~~~~~
|------17--------------------------------------------------------|
|-(17)----20p17----17-20b22--------------------------------------|
|-(19)----------19-----------19b21r(19)p17----19-17-(17)-(17)---|
|------------------------------------------19--------------------|
|----------------------------------------------------------------|
|----------------------------------------------------------------|


|-----------------------------|
|-------------x-x-2--x-2--x-x-|
|-----------2-x-x-2--x-2--x-x-|
|-2-----2-4-------2-----------|
|-0-3h4-----------------------|
|-----------------------------|


|-------------------3--3-2-(2)--|-----------------------------|
|-----------------x-3--3-3-(3)--|-------------x-x-2--x-2--x-x-|
|-4p2p0---------2-x-------------|-----------2-x-x-2--x-2--x-x-|
|-------4p2p0-------------------|-2-----2-4-------------------|
|-------------4-----------------|-0-3h4-----------------------|
|-------------------------------|-----------------------------|


                                            Bridge
          
                                                              ~
|---------------3--3-2-(2)--||------------||-----------------------|
|---2--x-x-2--x-3--3-3-(3)--||------------||-3--(3)----------------|
|-2-2--x-x-2--x-------------||-0----0-----||-2--(2)-----------7-2--|
|-2-------------------------||-0----0-----||-0--(0)-------9p7---2--|
|---------------------------||------------||--------7h9p7-------0--|
|---------------------------||-3----3--4--||-----------------------|


                       ~
|--------------------|-------------------------------|-----------------|
|----------------3---|-3-----------------------------|------3--2-------|
|-(2)------------2-2-|-2--------------9b11r(9)p7p0-2-|-(2)--2--2--x---|
|-(2)------2-4p2-4-2-|-0--------7h9p7--------------2-|-(2)--4--2--x---|
|-(0)----4-----------|------7s9--------------------0-|-(0)-------------|
|--------------------|-------------------------------|-----------------|


  ~                                                          PM------------|
|-------------------------------|--------------------------|-----------------|
|-3-----------------------------|--------------------------|-----------------|
|-2--------------9b11r(9)p7p0-2-|-(2)--(2)-----2-x---------|-----------------|
|-0--------7h9p7--------------2-|-(2)--(2)-----2-x---------|-----------------|
|------7s9--------------------0-|-(0)--(0)-3h4-------------|-2-2-2-2-2-2-2-2-|
|-------------------------------|------------------3b4-(3)-|-0-0-0-0-0-0-0-0-|


                          Guitar Solo
                           A5
  Gtr II
                             |
                             /

                                                             ~~~~~
|-----------------------||------------------------------------------|
|-----------------------||-[20]pb22r=([20])-[20]pb22r([20])-20b22---|
|-----------------------||------------------------------------------|
|-----------------------||------------------------------------------|
|-----------------------||------------------------------------------|
|-x-2-x-3-x-4-(4)-x-5---||------------------------------------------|


  G5                                    D5
   |                                     |
   /                                     /

|---------------------------------------------------------------------------------------|
|-20b22r(20)-20-19-17h20p17----17-------------------------------------------------------|
|---------------------------20----20-19-17---17-17b18==(17)r(17)-17p16p14-16h17p16p14---|
|------------------------------------------x--------------------------------------------|
|---------------------------------------------------------------------------------------|
|---------------------------------------------------------------------------------------|


  A5
   |
   /

                                                         4___/
                                                   ~~~~~
|----------------------------------------------------------------|
|----------------------------------------------17-20b22----------|
|----------14-------------------------------19-----------0---(0)-|
|-17p16h17----17-16h17h19----------16h17h19----------------------|
|-------------------------16h17h19-------------------------------|
|----------------------------------------------------------------|


  G5                D5
   |                  |
   /                  /

   1/         1/
|-------------------------------0-|
|-------------------------------0-|
|-14b17--(14)-14b17-(14)--(14)---|
|---------------------------------|
|---------------------------------|
|---------------------------------|


  A5
   |
   /

                                                            ~~~~~
|-17p15----15----------------------------------------------------|
|-------17----17p14-17p14----14----------------------------------|
|-------------------------16----16p14-16p14----14h16-14----14-14-|
|-------------------------------------------16----------16-------|
|----------------------------------------------------------------|
|----------------------------------------------------------------|


  G5                            D5
   |                             |
   /                             /

|-22b24r=(22)-22b24-22b24-22b24-22b24r=(22)-22-20-22-19-|
|-------------------------------------------------------|
|-------------------------------------------------------|
|-------------------------------------------------------|
|-------------------------------------------------------|
|-------------------------------------------------------|


  A5
  |
  /

                                                1/  1/  1/
|-x-17p15----15p12-12-x---------------------------------------|
|---------15------------15-12---------------------------------|
|-----------------------------14-12---------------------------|
|-----------------------------------14-12-----------14---12---|
|-----------------------------------------15--15-------------|
|-------------------------------------------------------------|


  G5
   |                             |              |
   /                             /              o

   1/  1/  1/  1/  1/  1/  1/  1/  1/  1/  1/  1/
|----------------------------------------------17---19---20---||
|-------------------------------17---19---20------------------||
|------12---14---16---17---19---------------------------------||
|-15----------------------------------------------------------||
|-------------------------------------------------------------||
|-------------------------------------------------------------||


|------------------------------------|
|------------------------------------|
|------------------------------------|
|------------------------------------|
|------------------------------------|
|--2h====3-3-3---2h==3-3s5-(5)s=17--|
|
| Gtr II
|-22b24========(22)r-----------------|
|------------------------------------|
|------------------------------------|
|--------------------------12-------|
|--------------------------12-------|
|------------------------------------|


|---------------------------|-----------------|
|---------------------------|-----------------|
|---------------------------|-----------------|
|---------------------------|-0-0-0---2-------|
|---------------------------|-------3---3-0---|
|-2h3-3-3-2h3-3s5-(5)s=17--|-----------------|
|
|---------------------------|-----------------|
|---------------------------|-----------------|
|---------------------------|-----------------|
|---------------------------|-----------------|
|---------------------------|-----------------|
|---------------------------|-----------------|


               Out Chorus
|------------||-------------------------------|
|------------||-------------------------------|
|-0----0-----||-2---------2-4b6-4-2-4b6r(4)p2-|
|-0----0-----||-2-----2-4---------------------|
|------------||-0-3h4-------------------------|
|-3----3--4--||-------------------------------|


|---------2-3-4-|---------------------------------|
|-------3-3-3-3-|---------------------------------|
|-0--0--2-------|-2-----------[4]b6-4b6-4b6-4p2---|
|-0--0--0-------|-2-----2-4p2---------------------|
|---------------|-0-3h4---------------------------|
|-3--3----------|---------------------------------|


|-------------|-----------------------------------|-------------|
|------3--3---|-----------------------------------|------3--3---|
|-0----2--2p0-|-2-----------4b6-4-2-2-0-[4]b6r(4)-|-0----2--2---|
|-0----0--0---|-2-----2-4-2-----------------------|-0----0--0---|
|-------------|-0-3h4-----------------------------|-------------|
|-3-----------|-----------------------------------|-3-----------|


|-----------------------------10-|--------9--------------------------|
|--------------------------------|-----------------------------------|
|-2---------4b6r(4)---2--[12]----|-12----2p0-2p0-4b6r(4)p2p0------|
|-2-----2-4----------------------|--------------------------------|
|-0-3h4--------------------------|-----------------------------------|
|--------------------------------|-----------------------------------|


|--------------------------------------|
|--------------------------------------|
|-2---------2-4p2p0-------4p2p0--------|
|-2-----2-4---------4p2p0-------4p2p0--|
|-0-3h4--------------------------------|
|--------------------------------------|


|------------------------------|---------------------------------|------------|
|------------------------------|---------------------------------|------3---3-|
|-0----------------------------|-2-----------4b6-4-2-4b6r(4)p2p0-|-0----2---2-|
|-0----0-0-0-0-0-0-0-0-0-0-0-0-|-2-----2-4p2---------------------|-0----0---0-|
|------------------------------|-0-3h4---------------------------|------------|
|-3----------------------------|---------------------------------|-3----------|


|-----------------------------|-----------------------------------------|
|-----------------------------|-----------------------------------------|
|-2---------2-[4]b6-0-4b6-4b6r|=(4)-2-4b6r(4)p2p0-2h4p2p0---------------|
|-2-----2-4-2-----------------|---------------------------4-2-0---------|
|-0-3h4-----------------------|---------------------------------4p2p0-3-|
|-----------------------------|-----------------------------------------|


|---------------------------------|
|---------------------------------|
|-2-----------4b6r(4)-2-4b6r(4)p2-|
|-2-----2-4-2---------------------|
|-0-3h4---------------------------|
|---------------------------------|


|--------2-3-4----*|
|------3-3-3-3----*|
|-0----2----------*|
|-0----0----------*|
|-----------------*|
|-3---------------*|

enjoy!

===========uthor/Artist: Poison
Title: Unskinny Bop
Album: Flesh & Blood
Transcribed by: Jamie Richardson
Email: jamie@digimart.com

-----------------|--------------------3---3-2----|----------------------------
-----------------|--------------------3---3-3----|----------------------------
-------------2---|-4-2-0---------2---------------|-------------2--------------
-2-------2-4-----|-------4-2-0-------------------|-2-------2-4----------------
-0---3-4---------|-------------4-----------------|-0---3-4--------------------
-----------------|-------------------------------|----------------------------
                                              Oh  What's got you so
Jumpy?    

--------------------3---3-2----|----------------------------------------------
--------------------3---3-3----|----------------------------------------------
-4-2-0---------2---------------|-------------2--------------------------------
-------4-2-0-------------------|-2-------2-4----------------------------------
-------------4-----------------|-0---3-4--------------------------------------
-------------------------------|----------------------------------------------
                                 Why can't you sit still,
yeah?               

--------------------3---3-2----|----------------------------------------------
--------------------3---3-3----|----------------------------------------------
-4-2-0---------2---------------|-------------2--------------------------------
-------4-2-0-------------------|-2-------2-4----------------------------------
-------------4-----------------|-0---3-4--------------------------------------
-------------------------------|----------------------------------------------
                           Like  gasoline you want to pump
me                 

--------------------3---3-2----|----------------------------------------------
--------------------3---3-3----|----------------------------------------------
--4-2-0---------2--------------|-------------2--------------------------------
--------4-2-0------------------|-2-------2-4----------------------------------
--------------4----------------|-0---3-4--------------------------------------
-------------------------------|----------------------------------------------
                        And Leave me when you get your feel,
yeah.            

--------------------3---3-2----|----------------------------------------------
--------------------3---3-3----|----------------------------------------------
--4-2-0---------2--------------|----------------------------------------------
--------4-2-0------------------|-2------2----------2--------------------------
--------------4----------------|-2------2----------2--------------------------
-------------------------------|-0------0----------0-------3----3-------------
                           Every time I touch you, you get
hot,               

----------------------------------------|-------------------------------------
----------------------------------------|-------------------------------------
----------------------------------------|-------------------------------------
--2-----------2--------------2-----5----|--2---------2-----------2------------
--2-----------2--------------2----------|--2---------2-----------2------------
--0-----------0--------------0----------|--0---------0-----------0-----3---3--
    I want to make love, you never stop. Come up for air pull me to da
floor. 

----------------------------------------|-------------------------------------
----------------------------------------|-------------------------------------
----------------------------------------|-------------2-b4--2-b4-2------------
--2-----------2--------------2-----5----|-2-------2-4-------------------------
--2-----------2--------------2----------|-0---3-4-----------------------------
--0-----------0--------------0----------|-------------------------------------
 What's been going on in that head of (yours) Unskinny Bop         
just      

--------------------------|---------------------------------------------------
---------------3----3-----|---------------------------------------------------
--0------------2----2-----|-------------2-b4-2-b4-2---------------------------
--0------------0----0-----|-2-------2-4---------------------------------------
--------------------------|-0---3-4-------------------------------------------
--3-----------------------|---------------------------------------------------
  blows me away     yeah    Unskinny bop,
bop                                 

--------------------------|---------------------------------------------------
-------------------3------|---------------------------------------------------
--0----------------2------|-------------2-b4-2-b4-2---------------------------
--0----------------0------|-2-------2-4---------------------------------------
--------------------------|-0---3-4-------------------------------------------
--3-----------------------|---------------------------------------------------
  all night and day  yeah.  Unskinny Bop, bop, bop,
bop                       

---------------------3-3-4|---------------------------------------------------
-------------------3-3-3-3|---------------------------------------------------
-0--------0--------2------|---------------------------------------------------
-0--------0--------0------|-9----9----9----9----9---9---9---9-----------------
--------------------------|-7----7----7----7----7---7---7---7-----------------
-3--------3---------------|-0----0----0----0----0---0---0---0-----------------
 She just loves to play     Unskinny bop, nothin more to
say.                 

--------------------------|---------------------------------------------------
--------------------------|-------------2-------------------------------------
--------------------------|---------2-4---------------------------------------
--------------------------|-2---3-4-------------------------------------------
--------------------------|-0-------------------------------------------------
--x-2---x-3---x-4---x-5---|---------------------------------------------------
                       You  look at me so
funny.                              

--------------------3--3-2-|--------------------------------------------------
--------------------3--3-3-|-------------2------------------------------------
--4-2-0---------2----------|---------2-4--------------------------------------
--------4-2-0--------------|-2---3-4------------------------------------------
--------------4------------|-0------------------------------------------------
---------------------------|--------------------------------------------------
                             Love bite got you acting oh so
strange.          

--------------------3--3-2-|--------------------------------------------------
--------------------3--3-3-|-------------2------------------------------------
--4-2-0---------2----------|---------2-4--------------------------------------
--------4-2-0--------------|-2---3-4------------------------------------------
--------------4------------|-0------------------------------------------------
---------------------------|--------------------------------------------------
                        You  got too many bees in your
honey                  

--------------------3--3-2-|--------------------------------------------------
--------------------3--3-3-|-------------2------------------------------------
--4-2-0---------2----------|---------2-4--------------------------------------
--------4-2-0--------------|-2---3-4------------------------------------------
--------------4------------|-0------------------------------------------------
---------------------------|--------------------------------------------------
                      Am I   just another word in your page,
yeah.            

--------------------3--3-2-|--------------------------------------------------
--------------------3--3-3-|--------------------------------------------------
--4-2-0---------2----------|--------------------------------------------------
--------4-2-0--------------|--------------------------------------------------
--------------4------------|--------------------------------------------------
---------------------------|--------------------------------------------------
                      Every...
(Chorus)                                       

---------------|----------------------------------|---------------------------
---------------|-3--------------------------------|---------------------------
--0------0-----|-2------------------------------2-|---------------------------
--0------0-----|-0------------------------------2-|---------------------------
---------------|--------------------------------0-|---------------------------
--3------3--4--|----------------------------------|---------------------------
                    You're saying my love won't do     
ya.                   

-------------------------------|-----------------|----------------------------
--3----------------------------|----3----2-------|----------------------------
--2-----------------------2----|----2----2-------|----------------------------
--0-----------------------2----|----4----2-------|----------------------------
--------------------------0----|---------0-------|----------------------------
-------------------------------|-----------------|----------------------------
       That ain't love written   on your
face                                 

-------------------------------------------|----------------------------------
--3----------------------------------------|----------------------------------
--2----------------------------------------|----------------------------------
--0------------------------------------2---|----------------------------------
---------------------------------------2---|----------------------------------
---------------------------------------0---|----------------------------------
       Well, honey, I can see right through    ya.      We'll
see             

------------------------------------------|-----------------------|-----------
------------------------------------------|-----------------------|-----------
------------------------------------------|-----------------------|-----------
------------------------------------------|-----------------------|-----------
-2---2---2---2---2---2---2---2------------|-----------------------|-----------
-0---0---0---0---0---0---0---0------------|-x-2---x-3---x-4---x-5-|-----------
 who's ridin' who at the end of the race.                           
(solo)   

------------------------------------|-----------------------------------------
------------------------------------|-----------------------------------------
------------------------------------|-----------------------------------------
------------------------------------|-----------------------------------------
------------------------------------|-----------------------------------------
--2-3-3-3-2-3-3-5------------------|-2-3-3-3-2-3-3/5-------------------------
                      What's right?                    What's
wrong?          

------------------------------------|-----------------------------------------
------------------------------------|-----------------------------------------
------------------------------------|-----------------------------------------
------------------------------------|--0----0---0-------2---------------------
------------------------------------|----------------3----3---0---------------
-2-3-3-3-2-3-3-5--------------------|-----------------------------------------
                     What's left?      What the hell is going
on?             

-------------------|----------------------------------------------------------
-------------------|----------------------------------------------------------
--0-------0--------|----------------------------------------------------------
--0-------0--------|----------------------------------------------------------
-------------------|----------------------------------------------------------
--3-------3---3--4-|----------------------------------------------------------
                     Chorus till fade
out.
Добавлено: 30.12.2013
Другие материалы по этой песне:

Страница создана 28.02.2012
http://primanota.ru/poison/unskinny-bop-chords.htm
Привет, Гость.
Предлагаем пройти революционный курс по гитаре.
Подарок от PrimaNota.Ru, забирай!