PrimaNota.ru - самый крупный в мире бесплатный архив песенных текстов, аккордов, табулатур и нот


Poison - The Best Thing You Ever Had - текст песни, бас-таба, видео

Регистрация Запомнить меня
Войти через:  Facebook Google Twitter Vk Yandex Mail.ru

Poison - The Best Thing You Ever Had - текст песни, бас-таба, видео

Печатать
Просмотров: 108
Уроки эстрадного вокала в Санкт-Петербурге
most of the song
standered tuning
i dont know the bass line for the begining solo and solo. still working on it.

intro
-------------------------------------------------------------------------|
-------------------------------------------------------------------------|
----7--5--4--2-----------------------7--5-4-2----------------------------|
-0---------------3-5-3-5-5-5-5----0------------03-03-05------------------|

verse
--------------------|
--------------------|
--------------------|
--0--0--5-3210------| do until verse is done\

pre choris
-------------------------------------------------------------------------|
---1*-2-3-4--------------------------------------------------------------|
-2----------2------------------------------------------------------------|
----------------5-3--5-5-5-5---------------------------------------------|

Choris
-------------------------------------------------------------------------|
-------------------------------------------------------------------------|
------2-2---5-5-5-5------------------------------------------------------|
--0-0----------------5*--3210--------------------------------------------|

out choris
-------------------------------------------------------------------------|
-------------------------------------------------------------------------|
-------------------------------------------------------------------------|
-------3*----2-----------------------------------------------------------|

do bass line for intro

verse

pre choris

choris

dont no what to do for the solo yet still working on it

BASS SOLO repiet till solo is done

-------------------------------------------------------------------------|
-------------------------------------------------------------------------|
-------------------------------------------------------------------------|
-0-0-5-3-2-1-2-2-1-0-----------------------------------------------------|


pre choris

choris

out choris

noting for the rest of the song.
Добавлено: 22.11.2013
Другие материалы по этой песне:
  • Аккорды и текст

Страница создана 28.05.2012
http://primanota.ru/poison/the-best-thing-you-ever-had-chords.htm
Привет, Гость.
Предлагаем пройти революционный курс по гитаре.
Подарок от PrimaNota.Ru, забирай!