PrimaNota.ru - самый крупный в мире бесплатный архив песенных текстов, аккордов, табулатур и нот


Poison - Look But You Can't Touch - текст песни, бас-таба, видео

Регистрация Запомнить меня
Войти через:  Facebook Google Twitter Vk Yandex Mail.ru

Poison - Look But You Can't Touch - текст песни, бас-таба, видео

Печатать
Просмотров: 190
Уроки эстрадного вокала в Санкт-Петербурге
Artist:Poison
Song:Look But You Can't Touch
Album:Open Up And Say Ahh
Bassist:Bobby Dall
Tabber:Dev Fuld

Ok, I received a request for this song. It is tuned down a half step, and is quite an 
song, but hey...it's fun.

Key:
* = Let it ring
x = Times a number

*Guitar Intro*

Intro
Gb:-----|--------------------|
Db:-----|--------------------|
Ab:5*---|-----5----------5---|
Eb:---5*|0x24----5--0x24----5|

Verse
Gb:--|R|---|R|--|R|----|R|--|R|---|R|--|R|----|
Db:--|E|---|E|--|E|----|E|--|E|---|E|--|E|----|
Ab:--|S|7-7|S|--|S|5---|S|--|S|7-7|S|--|S|5---|
Eb:0-|T|---|T|0-|T|---5|T|0-|T|---|T|0-|T|---5|

Gb:--------------------|
Db:--------------------|
Ab:-----5----------5---|
Eb:0x23----5--0x23----5|

Pre-Chorus
Gb:---------|
Db:---------|
Ab:2x16-5x16|
Eb:---------|

Chorus
Gb:----------------|-----------|
Db:----------------|-----------|
Ab:------------5---|-----------|
Eb:0x8-5x8-0x8----5|0x8-5x8-7x9|

Verse

Pre-Chorus

Chorus

Pre-Solo (Third Verse)
Gb:--|R|---|R|--|R|----|R|--|R|---|R|--|R|----|
Db:--|E|---|E|--|E|----|E|--|E|---|E|--|E|----|
Ab:--|S|7-7|S|--|S|5---|S|--|S|7-7|S|--|S|5---|
Eb:0-|T|---|T|0-|T|---5|T|0-|T|---|T|0-|T|---5|

Solo
Gb:--------------------|
Db:--------------------|
Ab:-----5----------5---|
Eb:0x23----5--0x23----5|

Gb:---------|
Db:---------|
Ab:2x16-5x16|
Eb:---------|

Break

Bridge
Gb:----------------------------|
Db:----------------------------|
Ab:------------------------5---|
Eb:0-0-0-0-0-0-0-0-0-0-0-0----5|

Pre-Chorus

End:
Gb:----------------|-----------|----------------|-----------|--|
Db:----------------|-----------|----------------|-----------|--|
Ab:------------5---|-----------|------------5---|-----------|--|
Eb:0x8-5x8-0x8----5|0x8-5x8-7x9|0x8-5x8-0x8----5|0x8-5x8-7x9|0-|

That's it. Like I said, easy...yet fun. Also, is tuned down as you can tell and rock on. 
comments or questions, e-mail me at rocklvson@yahoo.com
Добавлено: 25.10.2013
Другие материалы по этой песне:
  • Аккорды и текст

Страница создана 28.02.2012
http://primanota.ru/poison/look-but-you-cant-touch-chords.htm
Привет, Гость.
Предлагаем пройти революционный курс по гитаре.
Подарок от PrimaNota.Ru, забирай!