PrimaNota.ru - самый крупный в мире бесплатный архив песенных текстов, аккордов, табулатур и нот


Poison - I Want Action - текст песни, таба, бас-таба, видео

Регистрация Запомнить меня
Войти через:  Facebook Google Twitter Vk Yandex Mail.ru

Poison - I Want Action - текст песни, таба, бас-таба, видео

Печатать
Просмотров: 121
Авторы: Bret Michaels, C.C. DeVille, Rikki Rockett, Bobby Dall

Lately I Have Gotten Into Poison And They Have Almost No Tabs So I Did This Song

Guitar 1 - C.C Deville
Guitar 2 - Bret Michaels(Vocals)
Tuning Eb Ab Db Gb Bb Eb

Intro ( C.C Only)
|----------------------------------------------------------------|
|----------------------------------------------------------------|
|----------------------------------------------------------------|
|-5---7-999999999999999-7----------------------------------------|
|-5---7-999999999999999-7----------------------------------------|
|-3---5-777777777777777-5----------------------------------------|

Verse ( C.C Only)
|----------------------------------------------------------------|
|----------------------------------------------------------------|
|----------9-9----------9-9----------9-9----------9-9------------|
|--9\3--7--9-9--9\3--7--9-9--9\3--7--9-9--9\3--7--9-9------------|
|--9\3--7--7-7--9\3--7--7-7--9\3--7--7-7--9\3--7--7-7------------|
|--7\1--5-------7\1--5-------7\1--5-------7\1--5-----------------|

Pre-Chourus ( C.C Only)
|----------------------------------------------------------------|
|----------------------------------------------------------------|
|----------------------------------------------------------------|
|----------------------------------------------77-77-------------|
|-55755575-77977797-55755575-77977797-55755575-77-77-------------|
|-33333333-55555555-33333333-55555555-33333333-55-55-------------|
 pm...........................................

Chourus ( C.C Only)  E=11
|----------------------------------------------------------------|
|----------------------------------------------------------------|
|------------9-9---------------9-9-------------------------------|
|-9----9\7-7-9-9-------------7-9-9-----------------------------7-|
|-9----9\7-7-7-7-991199911\7-7-7-7--55755575-77977797-99E999E9-7-|
|-7----7\5-5-----77-7777-7\5-5------33333333-55555555-77777777-5-|

Verse 2( C.C )
|----------------------------------------------------------------|
|----------------------------------------------------------------|
|----------9-9----------9-9----------9-9----------9-9------------|
|--9\3--7--9-9--9\3--7--9-9--9\3--7--9-9--9\3--7--9-9------------|
|--9\3--7--7-7--9\3--7--7-7--9\3--7--7-7--9\3--7--7-7------------|
|--7\1--5-------7\1--5-------7\1--5-------7\1--5-----------------|

Verse 2(Bret)
|----------------------------------------------------------------|
|----------------------------------------------------------------|
|----------------------------------------------------------------|
|----------------3/6---------------------------------------------|
|----------------3/6---------------------------------------------|
|----------------------------------------------------------------|

Pre-Chourus ( C.C Only)
|----------------------------------------------------------------|
|----------------------------------------------------------------|
|----------------------------------------------------------------|
|----------------------------------------------77-77-------------|
|-55755575-77977797-55755575-77977797-55755575-77-77-------------|
|-33333333-55555555-33333333-55555555-33333333-55-55-------------|
 pm...........................................

Chourus 2( Bret)  E=11
|----------------------------------------------------------------|
|----------------------------------------------------------------|
|------------9-9---------------9-9-------------------------------|
|-9----9\7-7-9-9-------------7-9-9-----------------------------7-|
|-9----9\7-7-7-7-991199911\7-7-7-7--55755575-77977797-99E999E9-7-|
|-7----7\5-5-----77-7777-7\5-5------33333333-55555555-77777777-5-|

Chourus 2 (C.C) THIS LEADS INTO THE SOLO
|----------------------------------------------------7~~---------|
|----------------------------------------------------7~~---------|
|----------------------------------------------------9b~---------|
|----------------------------------------------------------------|
|----------------------------------------------------------------|
|----------------------------------------------------------------|

Solo pt 1 (C.C)
|--7-------7-------7---------------------------------------------|
|--7-------7-------7---------------------------------------------|
|-9b------9b------9b-9bp7-9p7--9bp7------------7---6-9-----------|
|-----------------------------------9--------9---7-----9~~-7-----|
|-------------------------------------7/\-10---------------------|
|------------------------------------(0)-------------------------|

Solo pt 1 (Bret) E=11
|----------------------------------------------------------------|
|----------------------------------------------------------------|
|----------------------------------------------------------------|
|-------------99------------99----------------------------7------|
|-99E999E9779777-99E999E977977-55755575-77977797-99E999E9-7------|
|-777777775555---777777775555--33333333-55555555-77777777-5------|

Solo pt2 (C.C)
|-19-----------------------------------17b-17bp14-17b~-----------|
|--------------------17b-17b--17-15-17---------------------------|
|----19-21bp19--------------16-----------------------------------|
|--------------21\0----------------------------------------------|
|----------------------------------------------------------------|
|----------------------------------------------------------------|

Solo pt 2 (Bret) E=11
|----------------------------------------------------------------|
|----------------------------------------------------------------|
|----------------------------------------------------------------|
|-------------99------------99-----------------------------------|
|-99E999E9779777-99E999E977977-55755575-77977797-55755575-7777---|
|-777777775555---777777775555--33333333-55555555-33333333-5555---|

Interlude (C.C 0nly)
|----------------------------------------------------------------|
|-4p0-2p0-4-4-4p0-2p0-2------------------------------------------|
|----------------------------------------------------------------|
|----------------------5----7----9999999999999-7-----------------|
|----------------------5----7----9999999999999-7-----------------|
|----------------------3----5----7777777777777-5-----------------|

Chourus 3( Bret)  E=11
|----------------------------------------------------------------|
|----------------------------------------------------------------|
|------------9-9---------------9-9-------------------------------|
|-9----9\7-7-9-9-------------7-9-9----------------------------7-9|
|-9----9\7-7-7-7-991199911\7-7-7-7-55755575-77977797-99E999E9-7-7|
|-7----7\5-5-----77-7777-7\5-5-----33333333-55555555-77777777-5--|

Chourus 4 (C.C)
|----------------------------------------------------------------|
|-121212121212121212------12~-14~-15~-17~-20~-22~-22h24\---------|
|-------------------11-8-----------------------------------------|
|-----------------------9----------------------------------------|
|----------------------------------------------------------------|
|----------------------------------------------------------------|

Chourus 4( Bret)  E=11
|----------------------------------------------------------------|
|----------------------------------------------------------------|
|---------9-9---------------9-9----------------------------------|
|-9-9\7-7-9-9-------------7-9-9----------------------------------|
|-9-9\7-7-7-7-991199911\7-7-7-7-55755575-77977797-7/9-7/9-79979-9|
|-7-7\5-5-----77-7777-7\5-5-----33333333-55555555-5/7-5/7-57757-7|
                                 (      3 times    )

Outro(took forever to figure out may not be perfect)
|---------------------------------------------------------------------|
|-----12--12----------------------------------------------------------|
|11h14--14--14p11-----------------------------------------------------|
|----------------14p12-14bp12-----------------------------------------|
|----------------------------14p12-12p9----------------------14-----12|
|--------------------------------------14p12-12p10-10p7-10h12--10h12--|

end on a 
|-------|
|-------|
|-------|
|---9---|
|---9---|
|---7---|
After 3 hours this song is done enjoy
Добавлено: 04.08.2013
Другие материалы по этой песне:
  • Аккорды и текст

Страница создана 04.04.2012
http://primanota.ru/poison/i-want-action-chords.htm
Привет, Гость.
Предлагаем пройти революционный курс по гитаре.
Подарок от PrimaNota.Ru, забирай!