PrimaNota.ru - самый крупный в мире бесплатный архив песенных текстов, аккордов, табулатур и нот


Poison Idea - Just To Get Away - таба, видео

Регистрация Запомнить меня
Войти через:  Facebook Google Twitter Vk Yandex Mail.ru

Poison Idea - Just To Get Away - таба, видео

Печатать
Просмотров: 27
An Anthem from the Hardcore band Poison Idea
Easy to play for beginners and fun too

Intro/Chorus
e|---------------------------------------------------------------------------|
B|---------------------------------------------------------------------------|
G|-----2-4-5-5-5-5-2-4-------------------------------------------------------|
D|-2-2-0-2-3-3-3-3-0-2-2---2-2-----------------------------------------------|
A|-0-0-----------------0---0-0-5-3-3-3-3------5-7-0-0------------------------|
E|-----------------------------3-1-1-1-1-------------------------------------| x2

Verse
e|------------------------------------------------------------------------------|
B|------------------------------------------------------------------------------|
G|------------------------------------------------------------------------------|
D|-2-|---------------------5-5-5-5-5-5-5-5--------------------------------------|
A|-0-|-x32-3-3-3-3-3-3-3-3-3-3-3-3-3-3-3-3--------------------------------------|
E|---------1-1-1-1-1-1-1-1------------------------------------------------------|

Pre-Chorus
e|---------------------------------------------------------------------------|
B|---------------------------------------------------------------------------|
G|---------4-5-5-5-5-5-5-5-5-5-5-5-5-5-5-5-5---------------------------------|
D|-7-|-----2-3-3-3-3-3-3-3-3-3-3-3-3-3-3-3-3-7-7-7-7-7-----------------------|
A|-5-|-x28-----------------------------------5-5-5-5-5-----------------------|
E|---------------------------------------------------------------------------|

Outro/Solo (Tremolo picked)
e|-17-17-17-17-17-17-17-17-17-17-17-17-17-17-20-19-15-17-15-12-13-12-10p8p7--|
B|---------------------------------------------------------------------------|
G|---------------------------------------------------------------------------|
D|---------------------------------------------------------------------------|
A|---------------------------------------------------------------------------|
E|---------------------------------------------------------------------------|

e|-7p5p4-3p2p1---------------------------------------------------------------|
B|-------------3p2p1---------------------------------------------------------|
G|---------------------------------------------------------------------------|
D|---------------------2-----------------------------------------------------|
A|---------------------0-----------------------------------------------------|
E|---------------------------------------------------------------------------|


************************************

| /   slide up
| \   slide down
| h   hammer-on
| p   pull-off
| ~   vibrato
| +   harmonic
| x   Mute note
| b   Bend
| pb  Pre-bend
| br  Bend release
| pbr Pre-bend release
| brb Bend release bend

************************************
Добавлено: 23.11.2015
Другие материалы по этой песне:
  • Аккорды и текст

Страница создана 23.11.2015
http://primanota.ru/poison-idea/just-to-get-away-chords.htm
Привет, Гость.
Предлагаем пройти революционный курс по гитаре.
Подарок от PrimaNota.Ru, забирай!