PrimaNota.ru - самый крупный в мире бесплатный архив песенных текстов, аккордов, табулатур и нот


Pohlmann - Tut Mir Leid - таба, видео

Регистрация Запомнить меня
Войти через:  Facebook Google Twitter Vk Yandex Mail.ru

Pohlmann - Tut Mir Leid - таба, видео

Печатать
Просмотров: 160
Уроки эстрадного вокала в Санкт-Петербурге
/ = Slide up
\ = Slide down
Ich hab leider nicht die genauen Benennungen für 
die Akkorde (D und Em) im Chorus gefunden. Bin auch
für andere Korrekturen immer offen. ;) Viel Spaß.


Chorus
    Hm        D          G          Em
e | 2---------0----------3----------3--------- |
H | 3---------3----------3----------3--------. |
G | 4---------2----------0----------0--------- |
D | 4---------0----------0----------2--------. |
A | 2--------------------2----------2--------- |
E | ---------------------3----------0--------- |


Strophe
e | ----------------- ------------------------- ----------------- ------------------ |
H | ----------------- ------------------------- ----------------- -----------------. |
G | ----------------- ------------------------- ----------------- ------------------ |
D | ----------------- ------------------------- ----------------- -----------------. |
A | 5-5-5--5-5-5--5-5 -9--9--9---9--9--9---9--9 5-5-5--5-5-5--5-5 5-5-5--5-5-5--5-5- |
E | 7-7-7--7-7-7--7-7 10-10-10--10-10-10--10-10 3-3-3--3-3-3--3-3 2-2-2--2-2-2--2-2- |


Zwischenteil
    Em         F#m        G     Asus2 
e | 0----------2----------3-----0------------- |
H | 0----------2----------3-----0------------- |
G | 0----------2----------0-----2------------- |
D | 2----------4----------0-----2------------- |
A | 2----------4----------2-----0------------- |
E | 0----------2----------3------------------- |

Refrain, Strophe, Zwischenteil, Refrain

Bridge
e | ----------------- ------------------------- ----------------- ----------------- |
H | ----------------- ------------------------- ----------------- ----------------- |
G | 7-7-7--7-7-7--7-7 11-11-11--11-11-11--11-11 4-4-4--4-4-4--4-4 6-6-6--6-6-6--6-6 |
D | 9-9-9--9-9-9--9-9 12-12-12--12-12-12--12-12 5-5-5--5-5-5--5-5 4-4-4--4-4-4--4-4 |
A | ----------------- ------------------------- ----------------- ----------------- |
E | ----------------- ------------------------- ----------------- ----------------- |

Refrain

Outro
e | -2-------------------------- |
H | -------7------12------8----3 |
G | ---------------------------- |
D | ---------------------------- |
A | 2---2/5---5/10----10\7---7\2 |
E | ---------------------------- |


Songtext
Als ich dich sah, kam es mir vor
Als ob tausend Voegel mit dir ziehn
Ich stellte mir vor wie du und ich
So wie im Film, nur du und ich
Wir liebten das Leben, wir liebten uns selbst
Wir liebten es zu lieben
Doch das war nicht genug

Denn die tausend Voegel lieben nur den Sommer

Tut mir leid, tut mir leid, doch ich muss jetzt gehn
Tut mir leid, doch mein Herz kann sie nicht mehr sehn
Ich dachte die Liebe wuerde nie vergehen
Ich dachte und dachte zu viel, um sie zu verstehen

Als ich dich sah, kam es mir vor
Als ob tausend Voegel mit uns ziehn
Ich stellte mir vor, wir koennten an Zuegeln
Gebunden mit ihnen von hier fliehn
War alles gelogen, wir flohn von uns selbst
Konnten uns nicht entkommen
Nicht entkommen

Und die tausend Voegel lieben nur den Sommer

Tut mir leid, tut mir leid, doch ich muss jetzt gehn
Tut mir leid, doch mein Herz kann sie nicht mehr sehn
Ich dachte die Liebe wuerde nie vergehen
Ich dachte und dachte zu viel, um sie zu verstehen

Denn die tausend Voegel lieben nur den Sommer

Ooohh

Tut mir leid, tut mir leid, doch ich muss jetzt gehn
Tut mir leid, doch mein Herz kann sie nicht mehr sehn
Ich dachte die Liebe wuerde nie vergehen
Ich dachte und dachte zu viel, um sie zu verstehen



Schoenes Lied! ;)
Добавлено: 07.04.2012
Другие материалы по этой песне:
  • Аккорды и текст

Страница создана 07.04.2012
http://primanota.ru/pohlmann/tut-mir-leid-chords.htm
Привет, Гость.
Предлагаем пройти революционный курс по гитаре.
Подарок от PrimaNota.Ru, забирай!