PrimaNota.ru - самый крупный в мире бесплатный архив песенных текстов, аккордов, табулатур и нот


Pohlmann - Die Liebe - таба, видео

Регистрация Запомнить меня
Войти через:  Facebook Google Twitter Vk Yandex Mail.ru

Pohlmann - Die Liebe - таба, видео

Печатать
Просмотров: 171
Уроки эстрадного вокала в Санкт-Петербурге
                      Ingo Pohlmann-Die Liebe


Tabbed by:Marek Leske
Email:marekez@hotmail.de

Standard Tuning

Intro

Picking Part

     G       D(sus4)     Cadd9  (let ring)

|----3----------2-3--------3------------------------------|
|------3-------------------3------------------------------|
|--------0-----------------0------------------------------|   2x
|-------------0------------2------------------------------|
|--------------------------3------------------------------|
|--3------------------------------------------------------|


Strumming Part

     G        D        Cadd9

|--3----------2---------3---------------------------------|
|--3----------3---------3---------------------------------|
|--0----------2---------0---------------------------------|   2x
|--0----------0---------2---------------------------------|
|--2--------------------3---------------------------------|
|--3------------------------------------------------------|


Verse

(Cadd9)    G   D    Cadd9
Wir wollen Seite an Seite
         G                  D      Cadd9
Über das Schlachtfeld der Liebe zieh'n
          G     D      Cadd9
Und die Träume nach Perfektion
       G                 D        Cadd9
Haben lange schon nach uns geschrie'n

        Em7               D            Cadd9
Und sie machen dass wir so schnell laufen wollen
           Em7       D    Cadd9
Als wollte einer der Erste sein
              Em7       D        Am
Es bringt ja nichts zu versuchen aufzuholen
         Em7          D   Cadd9
Denn wer rennt, rennt oft allein


    Bm7                           Em7
Die Liebe lässt so gern auf sich warten
  Bm7                       Em7
Nur die Geduld hält sie ihn Atem


      Gehen         wir        in  Ruhe

    Cadd9             D5            G           Cadd9

|-------3----------------0---------------3------------3---|
|----------3----------3-----3---------3-----3-------------|
|----0--------0----------------2-------------------0------|
|------------------0--------------------------------------|
|-3---------------------------------------------3---------|
|----------------------------------3----------------------|


   auf         sie      zu

                Am                 Dsus4       Cadd9

|-------0------------3---3--------------------------------|
|----------1------3------3--------------------------------|
|----2-------------------0--------------------------------|
|--------------0---------2--------------------------------|
|-0----------------------3--------------------------------|
|---------------------------------------------------------|


    G             D      Cadd9
Die Liebe auf den ersten Blick
 G           D                Cadd9
Verführt uns dazu uns ständig umzuschau'n
    G           D     Cadd9
Das macht es ja so verflixt
         G            D                  Cadd9
Und denn will ich dem Verliebtsein nicht gleich vertrauen


         Em7      D     Cadd9
Und dann halt ich mich zurück
    Em7       D                Cadd9
Und folge diesmal nicht meinem ersten Willen
    Em7      D       Cadd9
Und verliebe mich in dich
 Em7        D            Am              Cadd9
Zunächst einmal für mich ganz im Stillen ganz im Stillen


    Bm7                          Em7
Die Liebe lässt so gern auf sich warten
 Bm7                        Em7
Nur die Geduld hält sie in Atem
    Bm7                          Em7      Cadd9  D
Die Liebe lässt so gern auf sich warten


      Am7
Ich hätte nie gedacht
      D
Dass ich es je versteh'
        Cadd9                         D
Und wer weiß ob ich es wirklich schon tu'

         Am7
Doch ich fühle wie du fühlst
 D
Es braucht Zeit dazu
        Cadd9               D
Und ich begreife nach und nach


    Bm7                          Em7
Die Liebe lässt so gern auf sich warten
 Bm7                        Em7
Nur die Geduld hält sie in Atem
    Bm7                          Em7
Die Liebe lässt so gern auf sich warten
 Bm7                        Em7
Nur die Geduld hält sie in Atem


      Gehen         wir        in  Ruhe

    Cadd9             D5            G           Cadd9

|-------3----------------0---------------3------------3---|
|----------3----------3-----3---------3-----3-------------|
|----0--------0----------------2-------------------0------|
|------------------0--------------------------------------|
|-3---------------------------------------------3---------|
|----------------------------------3----------------------|


   auf         sie      zu

                Am                 Dsus4          G

|-------0---------3------3--------------------------------|
|----------1------3------3--------------------------------|
|----2------------2------0--------------------------------|
|-----------------0------0--------------------------------|
|-0----------------------2--------------------------------|
|------------------------3--------------------------------|
Добавлено: 29.06.2012
Другие материалы по этой песне:
  • Аккорды и текст

Страница создана 29.06.2012
http://primanota.ru/pohlmann/die-liebe-chords.htm
Привет, Гость.
Предлагаем пройти революционный курс по гитаре.
Подарок от PrimaNota.Ru, забирай!