PrimaNota.ru - самый крупный в мире бесплатный архив песенных текстов, аккордов, табулатур и нот


Pohlmann - Dämon - таба, видео

Регистрация Запомнить меня
Войти через:  Facebook Google Twitter Vk Yandex Mail.ru

Pohlmann - Dämon - таба, видео

Печатать
Просмотров: 26
-------------------------------------------------------------------------------
                        Pohlmann-Dämon(unpugged)
-------------------------------------------------------------------------------
Tuning:Standard
reference: https://www.youtube.com/watch?v=PlDRHm9qq6Q


Intro
   Am           F               E
e|--0---0-------1---1---1------------------------------------------|
B|--1---1-------1---1---1------------------------------------------|
G|--2---2-------2---2---2-------1---1---1-------1------------------|
D|--2---2-------3---3---3-------2---2---2-------2------------------|  4x
A|--0---0-------3---3---3-------2---2---2-------2------------------|
E|----------S---1---1---1---S---0---0---0---S---0---3---0---3---0--|


Strophe
    Am          F               E
e|--0---0-------1---1---1------------------------------------------|
B|--1---1-------1---1---1------------------------------------------|
G|--2---2-------2---2---2-------1---1---1-------1------------------|
D|--2---2-------3---3---3-------2---2---2-------2------------------|  4x
A|--0---0-------3---3---3-------2---2---2-------2------------------|
E|----------S---1---1---1---S---0---0---0---S---0---3---0---3---0--|
       Ich bin    zwar  etwas          wunderlich           Doch ein 
  Wunder        kind            das bin ich     nicht       Nein Nein
.........                                                   So fehlt mir  
       

Pre-Chorus
    G           F               Am
e|--3---3-------1---1---1-------0---0---0-------0---0---0----------|
B|--3---3-------1---1---1-------1---1---1-------1---1---1----------|
G|--4---4-------2---2---2-------2---2---2-------2---2---2----------|  2x
D|--5---5-------3---3---3-------2---2---2-------2---2---2----------|
A|--5---5-------3---3---3-------0---0---0-------0---0---0----------|
E|--3---3---S---1---1---1---S---------------S----------------S-----|
   nichts  als  der Glaube  daran                            dass mein 
   Kopf    meinem  Herz     auch folgen          kann        Für die 
    G              F      G            F        G          Dm
e|--3--------------1------3------------1--------3----------5---5---5---5---5---5---5---5---5\|
B|--3--------------1------3------------1--------3----------6---6---6---6---6---6---6---6---6\|
G|--4--------------2------3------------2--------4----------7---7---7---7---7---7---7---7---7\|
D|--5--------------3------5------------3--------5----------7---7---7---7---7---7---7---7---7\|
A|--5--------------3------5------------3--------5----------5---5---5---5---5---5---5---5---5\|
E|--3--------------1------3------------1--------3--------------------------------------------|
    Kunst oder die Liebe, Liebe oder Kunst, die Kunst zu Lieben                              
 


Chorus
             Am          F               E
         e|--0---0-------1---1---1------------------------------------------|
         B|--1---1-------1---1---1------------------------------------------|
         G|--2---2-------2---2---2-------1---1---1-------1------------------|
         D|--2---2-------3---3---3-------2---2---2-------2------------------|   4x
         A|--0---0-------3---3---3-------2---2---2-------2------------------|
         E|----------S---1---1---1---S---0---0---0---S---0---3---0---3---0--|
Gib mich     frei
             Dämon       gib mich frei ...................


Bridge
              F                                  G                          Am
e|------------1----------------------------------3--------------------------0---|
B|------------1----------------------------------3--------------------------1---|
G|------------2----------------------------------4--------------------------2---|
D|------------3----------------------------------5--------------------------2---|
A|------------3----------------------------------5--------------------------0---|
E|------------1----------------------------------3-----------------------------|
Und auch die Welt ist alt und wunderlich und es scheint ihre Wunden heilen nicht
Krieg und Frieden        wie zum Hohn      wechseln sich ab tausende Jahre schon

************************************
S= Slap 
\= slide down
************************************

Text:
Strophe 1:
Ich bin zwar etwas wunderlich 
doch ein Wunderkind das bin ich nicht
Nein nein,
ich bin zu alt um ein Wunderkind zu sein

Pre-Chorus
So bleibt mir nichts als der Glaube daran
Dass mein Kopf meinem Herz auch folgen kann
Für die Kunst oder die Liebe Liebe oder Kunst 
die Kunst zu lieben

Chorus:
Gib mich frei
Dämon gib mich frei
Gib mich frei
Dämon gib mich frei

Strophe 2:
Ein Dämon hinter allen Gedanken 
versperrt mir den Weg zu mir selbst zu kommen
Den alten Wegen verhaftet 
mich immer nur im Kreise führen

Pre-Chorus:
So bleibt mir nichts als der Glaube daran
Dass mein Kopf meinem Herz auch folgen kann
Für die Kunst oder die Liebe Liebe oder Kunst
 die Kunst zu lieben

Chorus:
Gib mich frei
Dämon gib mich frei
Gib mich frei
Dämon gib mich frei

Bridge:
Und auch die Welt ist alt und wunderlich 
und es scheint ihre Wunden heilen nicht
Krieg und Frieden wie zum Hohn 
sich ab tausende Jahre schon

Pre-Chorus:
So bleibt uns nichts als Vertrauen darin
Dass wir Verstand und Herz in einem sind
Für die Kunst oder die Liebe 
oh oh oh oh ohhh

Chorus/Outro:
Gib uns frei
Dämon gib uns frei
Gib uns frei
Dämon gib uns frei
Добавлено: 18.04.2016
Другие материалы по этой песне:
  • Аккорды и текст

Страница создана 18.04.2016
http://primanota.ru/pohlmann/damon-chords.htm
Привет, Гость.
Предлагаем пройти революционный курс по гитаре.
Подарок от PrimaNota.Ru, забирай!