PrimaNota.ru - самый крупный в мире бесплатный архив песенных текстов, аккордов, табулатур и нот


Pohlmann - Da Bin Ich - таба, видео

Регистрация Запомнить меня
Войти через:  Facebook Google Twitter Vk Yandex Mail.ru

Pohlmann - Da Bin Ich - таба, видео

Печатать
Просмотров: 105
Pohlmann. - Da bin ich

Habe mich mal daran versucht, weil ich es vergeblich im Netz gesucht habe. Ich denke, es 
so ziemlich genau hin.


Strophe:
e---------------------------------------------------------|
H---------------------------------------------------------|
G-----0----0----0----0----0------0----0----0----0----0----|	wiederholen
D----2----0----0----0----0------2----0----0----0----0-----|
A---0----1---------------------0----1---------------------|
E-------------3----3----3----3-----------3----3----3----3-|

Refrain:
	   D	     Asus4       G/D
e----x-----x------x----|
H----3-----3------3----|
G----2-----2------2----|
D----0-----2------0----|
A----------0------2----|
E-----------------3----|

		       D        Asus4				           G/D
Denn da bin ich zu finden, wo man mich nicht sieht

     Asus4
da weiß ich, daß es mich gibt
Добавлено: 14.03.2012
Другие материалы по этой песне:
  • Аккорды и текст

Страница создана 14.03.2012
http://primanota.ru/pohlmann/da-bin-ich-chords.htm
Привет, Гость.
Предлагаем пройти революционный курс по гитаре.
Подарок от PrimaNota.Ru, забирай!