PrimaNota.ru - самый крупный в мире бесплатный архив песенных текстов, аккордов, табулатур и нот


Poets Of The Fall - Skin - текст песни, таба, видео

Регистрация Запомнить меня
Войти через:  Facebook Google Twitter Vk Yandex Mail.ru

Poets Of The Fall - Skin - текст песни, таба, видео

Печатать
Просмотров: 1321
Авторы: Poets of the Fall

-------------------------------------------------------------------------
                             SKIN – Poets of the Fall
-------------------------------------------------------------------------
Tabbed by: Kengus

Nice song with nice guitar. Have fun.

Standard tuning

INTRO
  Em      F#m11/E   Em      E7sus2          Bm7/A Amadd9  Am9
e|--15------14------12------10------10--------7-----5-----3-----3-----3----|
B|-----0-------0-------0-------0-------0--------0-----0-----0-----0-----0--|
G|-------16------14------12------11------11-------7-----5-----5-----5-----5|
D|-------------------------------------------------------------------------|
A|------------------------------------------0------------------------------|
E|0------------------------------------------------------------------------|
  Em      F#m11/E   Em      E7sus2          Bm7/A Amadd9  Am9
e|--15------14------12------10------10--------7-----5-----3-----3-----3----|
B|-----0-------0-------0-------0-------0--------0-----0-----0-----0-----0--|
G|-------16------14------12------11------11-------7-----5-----5-----5-----5|
D|-------------------------------------------------------------------------|
A|------------------------------------------0------------------------------|
E|0------------------------------------------------------------------------|
   Gadd4/C         Bm7b9/D         E7omit3         E7sus2
e|---3-----3-----3---5-----5-----5---7-----7-----7-10------10------10------|
B|-----0-----0---------0-----0---------0-----0--------0-------0------------|
G|-------0-----0---------5-----5---------7-----7--------11------11---------|
D|-------------------------------------------------------------------------|
A|-3---------------5-------------------------------------------------------|
E|---------------------------------0---------------------------------------|
   Gadd4/C         Bm7b9/D         E7omit3         Em
e|---3-----3-----3---5-----5-----5---7-----7-----7-12------12------12------|
B|-----0-----0---------0-----0---------0-----0--------0-------0------------|
G|-------5-----5---------5-----5---------7-----7--------12------12---------|
D|-------------------------------------------------------------------------|
A|-3---------------5-------------------------------------------------------|
E|---------------------------------0---------------------------------------|

VERSE I (repeat intro pattern)

PRE-CHORUS
   Amadd9          B7omit3         Em            A9/C#             Gadd4/C
e|---5-----5-----5---2-----2-----2---3-----3-------5-----7p5-----5---3-----|
B|-----0-----0---------0-----0---------0-----0-------0-------0---------0---|
G|-------5-----5---------2-----2---------0-----0-------0-------0---------0-|
D|-------------------------------------------------------------------------|
A|-0---------------2-----------------------------4-----------------3-------|
E|---------------------------------0---------------------------------------|
           B7omit3         E7omit3      F#mbb5  G
e|-3-----3---2-----0-----0---7-----7------2-(2)-3-(3)-|
B|---0---------0-----0---------0-----0----0-----0-----|
G|-----0---------2-----2---------7-----7--2-----0-----|
D|----------------------------------------------------|
A|---------2------------------------------------------|
E|-------------------------0--------------2-----3-----|

CHORUS I
   Amadd9          B7omit3         Em            A9/C#             Gadd4/C
e|---5-----5-----5---2-----2-----2---3-----3-------5-----7p5-----5---3-----|
B|-----0-----0---------0-----0---------0-----0-------0-------0---------0---|
G|-------5-----5---------2-----2---------0-----0-------0-------0---------0-|
D|-------------------------------------------------------------------------|
A|-0---------------2-----------------------------4-----------------3-------|
E|---------------------------------0---------------------------------------|
           B7omit3         E7omit3      F#mbb5  G
e|-3-----3---2-----0-----0---7-----7------2-(2)-3-(3)-|
B|---0---------0-----0---------0-----0----0-----0-----|
G|-----0---------2-----2---------7-----7--2-----0-----|
D|----------------------------------------------------|
A|---------2------------------------------------------|
E|-------------------------0--------------2-----3-----|

   Amadd9          B7omit3         Em            A9/C#             Gadd4/C
e|---5-----5-----5---2-----2-----2---3-----3-------5-----7p5-----5---3-----|
B|-----0-----0---------0-----0---------0-----0-------0-------0---------0---|
G|-------5-----5---------2-----2---------0-----0-------0-------0---------0-|
D|-------------------------------------------------------------------------|
A|-0---------------2-----------------------------4-----------------3-------|
E|---------------------------------0---------------------------------------|
           B7omit3         E7omit3 E6sus4           Amadd9  G  Em
e|-3-----3---2-----0-----0---7-----5--5-----5-----5--5------3--0---|
B|---0---------0-----0-------0-----0----0-----0------0------0--0---|
G|-----0---------2-----2-----7-----6------6-----6----5------0--0---|
D|-----------------------------------------------------------------|
A|---------2-------------------------------------------------------|
E|-------------------------0-------------------------5------3--0---|

VERSE II (repeat intro pattern)

PRE-CHORUS (same pattern as previous pre-chorus)

CHORUS II
   Amadd9          B7omit3         Em            A9/C#             Gadd4/C
e|---5-----5-----5---2-----2-----2---3-----3-------5-----7p5-----5---3-----|
B|-----0-----0---------0-----0---------0-----0-------0-------0---------0---|
G|-------5-----5---------2-----2---------0-----0-------0-------0---------0-|
D|-------------------------------------------------------------------------|
A|-0---------------2-----------------------------4-----------------3-------|
E|---------------------------------0---------------------------------------|
           B7omit3         E7omit3      F#mbb5  G
e|-3-----3---2-----0-----0---7-----7------2-(2)-3-(3)-|
B|---0---------0-----0---------0-----0----0-----0-----|
G|-----0---------2-----2---------7-----7--2-----0-----|
D|----------------------------------------------------|
A|---------2------------------------------------------|
E|-------------------------0--------------2-----3-----|

   Amadd9          B7omit3         Em            A9/C#             Gadd4/C
e|---5-----5-----5---2-----2-----2---3-----3-------5-----7p5-----5---3-----|
B|-----0-----0---------0-----0---------0-----0-------0-------0---------0---|
G|-------5-----5---------2-----2---------0-----0-------0-------0---------0-|
D|-------------------------------------------------------------------------|
A|-0---------------2-----------------------------4-----------------3-------|
E|---------------------------------0---------------------------------------|
           B7omit3            E7omit3     E6sus4
e|-3-----3---2-----0-----0--|---7-----7---5-5-----5-----5--|
B|---0---------0-----0------|-----0-----0-0---0-----0------|repeat this last
G|-----0---------2-----2----|-------7-----6-----6-----6----|section twice
D|--------------------------|------------------------------|(E7omit3+E6sus4)
A|---------2----------------|------------------------------|
E|--------------------------|-0-----------0----------------|

BRIDGE (strum the chords)
C                D
   All I ever wanted was to hold you
Em              C                   D                B7/D# = xx1202
   What can I do now to make things new
                    B7/D#          Em
I ain't trying to write you into a song
                     C        G/B         Am
'Cause you're too sacred and I would feel wrong
          D/F#            Em                 C                   D  
But what irony life holds,   I was finally ready to meet you halfway
   B7/D#              (straight into interlude...)
You turned and walked away

INTERLUDE (repeat pre-chorus pattern)

CHORUS III (last part slightly longer and altered)

OUTRO
  Em      F#m11/E   Em      E7sus2          Bm7/A Amadd9  Am9
e|--15------14------12------10------10--------7-----5-----3-----3-----3----|
B|-----0-------0-------0-------0-------0--------0-----0-----0-----0-----0--|
G|-------16------14------12------11------11-------7-----5-----5-----5-----5|
D|-------------------------------------------------------------------------|
A|------------------------------------------0------------------------------|
E|0------------------------------------------------------------------------|
  Em      F#m11/E   Em      E7sus2          Bm7/A Amadd9  Am9
e|--15------14------12------10------10--------7-----5-----3-----3-----3----|
B|-----0-------0-------0-------0-------0--------0-----0-----0-----0--------|
G|-------16------14------12------11------11-------7-----5-----5-----5------|
D|-------------------------------------------------------------------------|
A|------------------------------------------0------------------------------|
E|0------------------------------------------------------------------------|

***

LYRICS:

INTRO

VERSE I
We made ourselves a home out of our dreams
Brought with us this love now bittersweet
And maybe I could say now that I always thought of you
How you've run to walk with me your whole life through

PRE-CHORUS
And I know, we go deeper than skin
But what lies within is still deeper than we know

CHORUS I
And for all this pantomime, you should see the state I'm in
I couldn't heal myself with time alone
I have you tattooed on my skin

VERSE II
This house is full of stories we both told
These rooms their very stage where they'd unfold
These walls they whisper secrets and memories thereof
But this door no longer leads us to that love

PRE-CHORUS
Yeah, I know, we go deeper than skin
But what lies within is still deeper than we know

CHORUS II
And for all this pantomime, you should see the state I'm in
I couldn't heal myself with time alone
I have you tattooed on my skin

BRIDGE
All I ever wanted was to hold you
What can I do now to make things new
I ain't trying to write you into a song
'Cause you're too sacred and I would feel wrong
But what irony life holds, I was finally ready to meet you halfway
You turned and walked away

INTERLUDE

CHORUS III
And for all this pantomime, you should see the state I'm in
I couldn't heal myself with time alone
I have you tattooed on my skin

I couldn't heal myself with time alone
I have you tattooed on my skin

OUTRO

===========================================================================
Comment, rate, appreciate!
Добавлено: 28.08.2013
Другие материалы по этой песне:
  • Аккорды и текст

Страница создана 28.08.2013
http://primanota.ru/poets-of-the-fall/skin-chords.htm
Привет, Гость.
Предлагаем пройти революционный курс по гитаре.
Подарок от PrimaNota.Ru, забирай!