PrimaNota.ru - самый крупный в мире бесплатный архив песенных текстов, аккордов, табулатур и нот


Poets Of The Fall - Fragile - аккорды и текст, таба, видео

Регистрация Запомнить меня
Войти через:  Facebook Google Twitter Vk Yandex Mail.ru

Poets Of The Fall - Fragile - аккорды и текст, таба, видео

Печатать
Просмотров: 524
Авторы: Poets of the Fall

Fragile
Poets Of The Fall
This is based on one guitar chord adaption by Pestage from POTF forums.
I revamped it and fixed what I think was a bit out of place and upgraded it with 
for us hardcore ballad freaks ^^

For simple chords with a pick play Bsus4 instead of Esus4 in Verses.


What you should know:
|---------------------
| E x22100
| Asus2 x02200
| Esus4 022200
| Bsus4 x24400
| Dsus2 xx0230
| E6 x46600
| E7sus4 020230
| F#7add11 244300


___________________________________________________________________________
Verse 1:
   E                    Asus2                Esus4
e|--------------------|--------------------|--------------------|
B|--------0-------0---|--------0-------0---|--------0-------0---|
G|-----1--------------|-----2--------------|-----2--------------|
D|----2--2-------2-2--|----2--2-------2-2--|----2--2-------2-2--|
A|-2----------2-------|-0----------0-------|-2----------2-------|
E|--------------------|--------------------|--------------------|

PRE-CHORUS:
   Dsus2                E                    Asus2
e|--------0-------0---|--------0-------0---|--------0-------0---|
B|-----3--------------|-----0--------------|-----0--------------|
G|----2--2-------2-2--|----1--1-------1-1--|----1--1-------1-1--|
D|-0----------0-------|-2----------2-------|-2----------2-------|
A|--------------------|--------------------|--------------------|
E|--------------------|--------------------|--------------------|

___________________________________________________________________________


VERSE 1: (strumming)
--------------------
E
you've been biting bullets all these years i know
E                               Asus2
there beside yourself choking on tears
Esus4
and you aced avoiding possibility
Asus2
when you placed your beds on bittersweet


PRE-CHORUS 1: (strumming)
-------------------------
Dsus2
now don't you worry
E
no need to be sorry
Asus2
time to step lightly
Bsus4-E6 (chords slide)


CHORUS 1: (chords)
------------------
E7sus4
'Cause the love you used to feel is still there
Asus2
inside
E6
it may be a faded photograph but I know you care, so don't hide
E7sus4
if you're scared i'm here beside you
Asus2
if you get lost i'm here to guide you
E6
And I'll give you peace when peace is fragile.
Dsus2
Love is all the good in you,
Asus2                      E(Strumming as in Verse 1)
Love is peace when peace is fragile.


VERSE 2: (strumming)
--------------------
E
You've been going out of way to agree
E                                                       Asus2
Like you've been rubbing yourself all wrong just to be somebody else's genie
Esus4
Catering to your disasters every need
Asus2
Waiting to finally be set free

PRE-CHORUS 2: (strumming)
Dsus2
now don't you worry
E
no need to be sorry
Asus2
time to step lightly
Bsus4-E6 (chords slide)


CHORUS 2: (chords)
------------------
E7sus4
'Cause the love you used to feel is still there
Asus2
inside
E6
it may be a faded photograph but I know you care, so don't hide
E7sus4
if you're scared i'm here beside you
Asus2
if you get lost i'm here to guide you
E6
And I'll give you peace when peace is fragile.
Dsus2
Love is all the good in you,
Asus2              Bsus4     E
Love is peace when peace is fragile.


INSTRUMENTAL:
-------------
(Play 2 times)
E Asus2
eh eh eh
E6 Bsus4
oh oh oh oh
F#7add11


CHORUS 3: (chords)
------------------
E7sus4
'Cause the love you used to feel is still there
Asus2
inside
E6
it may be a faded photograph but I know you care, so don't hide
E7sus4
if you're scared i'm here beside you
Asus2
if you get lost i'm here to guide you
E6
And I'll give you peace when peace is fragile.
Dsus2
Love is all the good in you,
Asus2              Dsus2    Asus2                  E (Strumming to the end)
Love is peace when peace is fragile eeee ou ah ah ah an ah.
Добавлено: 01.06.2012
Другие материалы по этой песне:
  • Аккорды и текст

Страница создана 01.06.2012
http://primanota.ru/poets-of-the-fall/fragile-chords.htm
Привет, Гость.
Предлагаем пройти революционный курс по гитаре.
Подарок от PrimaNota.Ru, забирай!