PrimaNota.ru - самый крупный в мире бесплатный архив песенных текстов, аккордов, табулатур и нот


Poets Of Rhythm - North Carolina - бас-таба, видео

Регистрация Запомнить меня
Войти через:  Facebook Google Twitter Vk Yandex Mail.ru

Poets Of Rhythm - North Carolina - бас-таба, видео

Печатать
Просмотров: 98
Уроки эстрадного вокала в Санкт-Петербурге
The poetsy of rhythm: North Carolina

Intro:
G----------------------------------------|
D--20------------------------------------|
A----20----------------------------------|
D------52~----02-02-52~------------------|

Verse:
G-----------------------------------------|
D--20---------20--------------------------|
A----20---------20------------------------|
D------5-02-------5-025-------------------|
Добавлено: 08.04.2012
Вам также может быть интересно:
Другие материалы по этой песне:
  • Аккорды и текст

Страница создана 08.04.2012
http://primanota.ru/poets-of-rhythm/north-carolina-chords.htm
Привет, Гость.
Предлагаем пройти революционный курс по гитаре.
Подарок от PrimaNota.Ru, забирай!