PrimaNota.ru - самый крупный в мире бесплатный архив песенных текстов, аккордов, табулатур и нот


Pod - Shine With Me - текст песни, таба, видео

Регистрация Запомнить меня
Войти через:  Facebook Google Twitter Vk Yandex Mail.ru

Pod - Shine With Me - текст песни, таба, видео

Печатать
Просмотров: 271
Author/Artist: P.O.D.
Title: Shine With Me
Album: When Angels & Serpents Dance
Tabbed by: Lemuel Caparaz
Tuning: Drop D4/4
    PM-------------------------------------------------------|
e|----||--------------------------|--------------------------|
B|----||--------------------------|--------------------------|
G|----||--------------------------|--------------------------|
D|----||------5------------5------|------5------------5------|
A|--0-||-0--0---0--0--0--0---0--0-|-0--0---0--0--0--0---0--0-|
D|----||--------------------------|--------------------------|

   PM--------------------------------------------------|
e|--------------------------|--------------------------|
B|--------------------------|--------------------------|
G|--------------------------|--------------------------|
D|------3------------3------|------3------------3------|
A|-0--0---0--0--0--0---0--0-|-0--0---0--0--0--0---0----|
D|--------------------------|------------------------3-|

   PM--------------------------------------------------|
e|--------------------------|--------------------------|
B|--------------------------|--------------------------|
G|--------------------------|--------------------------|
D|------2------------2------|------2------------2------|
A|--------------------------|--------------------------|
D|-3--3---3--3--3--3---3--3-|-3--3---3--3--3--3---3--0-|

   PM--------------------------------------------------|
e|--------------------------|--------------------------||
B|--------------------------|--------------------------||
G|--------------------------|--------------------------||
D|------3-2----------3-2----|------3-2----------3-2----||
A|--------------------------|------------------------0-||
D|-0--0------0--0--0------0-|-0--0------0--0--0--------||

Verse: (all)

   PM---------------------------------------------------|
e||--------------------------|--------------------------|
B||--------------------------|--------------------------|
G||--------------------------|--------------------------|
D||------5------------5------|------5------------5------|
A||-0--0---0--0--0--0---0--0-|-0--0---0--0--0--0---0--0-|
D||--------------------------|--------------------------|

   PM--------------------------------------------------|
e|--------------------------|--------------------------|
B|--------------------------|--------------------------|
G|--------------------------|--------------------------|
D|------3------------3------|------3------------3------|
A|-0--0---0--0--0--0---0--0-|-0--0---0--0--0--0---0----|
D|--------------------------|------------------------3-|

   PM--------------------------------------------------|
e|--------------------------|--------------------------|
B|--------------------------|--------------------------|
G|--------------------------|--------------------------|
D|------2------------2------|------2------------2------|
A|--------------------------|--------------------------|
D|-3--3---3--3--3--3---3--3-|-3--3---3--3--3--3---3--0-|

   PM--------------------------------------------------|
e|--------------------------|--------------------------||
B|--------------------------|--------------------------||
G|--------------------------|--------------------------||
D|------3-2----------3-2----|------3-2----------3-2----||
A|--------------------------|--------------------------||
D|-0--0------0--0--0------0-|-0--0------0--0--0--------||

Chorus:

e||------------------------|-----------------------|
B||------------------------|-----------------------|
G||-2--2--2--2--2--2--2--2-|-2--2--2--2--2---4---5-|
D||-2--2--2--2--2--2--2--2-|-2--2--2--2--2---4---5-|
A||-0--0--0--0--0--0--0--0-|-0--0--0--0--0---2---3-|
D||------------------------|-----------------------|

e|-------------------------|------------------------|
B|-------------------------|------------------------|
G|-(5)-5--5--5--5--5--5--5-|-5--5--5--5--5--5--5--5-|
D|-(5)-5--5--5--5--5--5--5-|-5--5--5--5--5--5--5--5-|
A|-(3)-3--3--3--3--3--3--3-|-3--3--3--3--3--3--3--3-|
D|-------------------------|------------------------|

e|------------------------|-----------------------|
B|------------------------|-----------------------|
G|------------------------|-----------------------|
D|-3--3--3--3--3--3--3--3-|-3--3--3--3--3--7----0-|
A|-3--3--3--3--3--3--3--3-|-3--3--3--3--3--7----0-|
D|-3--3--3--3--3--3--3--3-|-3--3--3--3--3--7----0-|

e|-------------------------|---------------------||
B|-------------------------|---------------------||
G|-------------------------|-5----5--------------||
D|-(0)-0--0--0--0--0--0--0-|-5----5----7----5----||
A|-(0)-0--0--0--0--0--0--0-|-3----3----7----5----||
D|-(0)-0--0--0--0--0--0--0-|-----------7----5----||

Lead Riff
e|-----8-----------|-8-------------8-|     |--8~~~~------|
B|-5-6-----5-6-5-6-|-----5-6-5---5---|     |-------------|
G|-------7---------|---7-------7-----| 3x  |---------5b7-|
D|-----------------|-----------------|     |-------------|
A|-----------------|-----------------|     |-------------|
D|-----------------|-----------------|     |-------------|

Bridge:
e|--------------------|------------------|     |-------|
B|--------------------|------------------|     |-------|
G|--------------------|------------------| 3x  |-------|
D|-10-9-7-10-9-7-10-9-|-7-10-9-7--5---5--|     |-7~~~~~|
A|-10-9-7-10-9-7-10-9-|-7-10-9-7--5---5--|     |-7~~~~~|
D|-10-9-7-10-9-7-10-9-|-7-10-9-7--5---5--|     |-7~~~~~|
Добавлено: 17.03.2012
Другие материалы по этой песне:
  • Аккорды и текст

Страница создана 17.03.2012
http://primanota.ru/pod/shine-with-me-chords.htm
Привет, Гость.
Предлагаем пройти революционный курс по гитаре.
Подарок от PrimaNota.Ru, забирай!