PrimaNota.ru - самый крупный в мире бесплатный архив песенных текстов, аккордов, табулатур и нот


Pod - Rosa Linda - аккорды и текст, видео

Регистрация Запомнить меня
Войти через:  Facebook Google Twitter Vk Yandex Mail.ru

Pod - Rosa Linda - аккорды и текст, видео

Печатать
Просмотров: 113
Rosa Linda
Pod
Dropped D tuning (Spanish Guitar)

[E----------------------------------------------------------------------------------------------
B-3--3-3-3/5-5/6-8--8p65/6-8-p6/3----3--3-3-3/5-5/6-8--8p65/6-8-p6/3----1--1-1-1-1/3-3/5-5/6-
G-2--------------------------------------------2-------------------------------------------0---
D-0--------------------------------------------0-------------------------------------------2---
A-5--------------------------------------------5-------------------------------------------0---
D-0--------------------------------------------0-----------------------------------------------]
.
[E----------------------------------------------------------------------------------------------
B--6p5p3h5----1--1-1-1-1/3-3/5-5/6---6p5p3h5--3-------------------------------------------
G-----------------0----------------------------------------3--3-3-3p2-0-----3p2-0-----0----------
D-----------------2----------------------------------------3------------(5)-3------(5)-3----3-2--0--
A-----------------0----------------------------------------1-------------------------------------------
D-----------------------------------------------------------------------------------------------------]

[E-----------------------------------------
B--1--1-1-1-1/3-3/5-5/6---6p5p3h5-
G--0-------------------------------------
D--2-------------------------------------
A--0-------------------------------------
D-----------------------------------------]

This is where there are 2 guitars playing.
On one of them Marcos is picking the rhythm of the song.
On the other he is playing some leads.

Here is the rhythm first:
Chords:
D ([0x023x])
Am7 ([x0201x])
Bb ([x1333x])
Am7 ([x0201x])

[E-------------------------------------------------------------------------------------------------------
B--------3----------------3------------------3---------------------3--------------------------1---------
G-----2----2----------2-----2-----------2------2-------------2------2-------------------0------0--------
D---0---------0----0-----------0----0--------------0------0-------------0-----------2--------------2----
A------------------------------------------------------------------------------------0---------------------0-
D-0--------------0-----------------0--------------------0---------------------0-5-----------------------]
.
[E-------------------------------------------------------------------------------------------------------
B------------1---------------------1----------------------1-------------------------3-------------------------3-
G--------0------0--------------0------0--------------0------0-----------------3-------3---------------3-
D----2--------------2-------2-------------2------2--------------2---------3--------------3-------3------
A-0---------------------0---------------------0---------------------0--1----------------------1---------
D-------------------------------------------------------------------------------------------------------

E-------------------------------------------------------------------------------------------------------
B---------------------------3--------------------------1---------------------1----------------------1---
G--3------------------3--------3------------------0------0--------------0------0--------------0------0--
D------3---------3------------------3---------2--------------2-------2-------------2------2--------------2----
A-----------1----------------------------1--0---------------------0---------------------0---------------------0-
D-------------------------------------------------------------------------------------------------------]
.
[E-------------------------------------------------------------------------------------------------------
B-----------1-------------------------------------------------------------------------------------------
G------0--------0---------------------------------------------------------------------------------------
D--2-----------------2-----------0~---------------------------------------------------------------------
A-------------------------0------------0~------3~---1~----0~-----------0~--------3~-------1~-------3~
D---------------------------------------------------------------------5~--------------------------------]
.
[E-----------------------------------
B--------------------------3-(3-3-)
G--------------------------2-(2-2-)
D--------------------------0-(0-0-)
A---1~---------0~----------------
D--------------------------0-(0-0-)]

Leads:
[E-----------------------------------------------------------------------0h1-3-5-3-0-1-3-5--6-6-6-6--5-5-5-
B-----3--5/6---5-6--6/7---5-8-7-5-7-5-5-3-3-5--6-6--5-3-5-----------------------------------------------
G-2-----------------------------------------------------------------------------------------------------
E--5-6-8-8-8-10-10-10-12-12-12--13p12--12-12-12---0-1-3-6-5-3-5-3-0-1-0-3h5--------------------------
B------------------------------------------------------------------------------------------------5-5-5--3-3-3---------
G----------------------------------------------------------------------------------------------------------------2-2-2-]
.
[E--0-1-3-6-5-3-5-3-0-1-0-3h5--------------------------5-(5-)-----0---0---0---0----5---5---5---5---
B-----------------------------------5-5-5--3-3-3------------------------3---3---3---3----3---3---3---3-
G---------------------------------------------------2-2-2-----------------------------------------------]
.
[E-------------------------------------------------------------------------------------------------------
B----3---3---3---3---0---0---0---0--------------------------------------6---6---6---6---6---6---6---6--h8-
G-4---4---4---4---4---4---4---4---4---4---4---4---4---4---4---4h6---7---7---7---7---7---7---7----7----
D----------------------------------------5---5---5---5---5---5---5--------------------------------------]
.
[E-------------------------------------------------------------------------------------------------------
B-6---6---6---6---6---6---6---6--h8--8---8---8---8---8---8---8-/-10---6---6---6---6---5---5----6---6---
G---7---7---7---7---7---7---7---7-------7---7----7---7--7---7-------------7---7---7---7---7---7----7---7-

E----------
B-3-(3-3-)-
G-2-(2-2-)-
D-0-(0-0-)-
A----------
D-0-(0-0-)-]
Добавлено: 22.10.2013
Другие материалы по этой песне:
  • Аккорды и текст

Страница создана 22.10.2013
http://primanota.ru/pod/rosa-linda-chords.htm
Привет, Гость.
Предлагаем пройти революционный курс по гитаре.
Подарок от PrimaNota.Ru, забирай!