PrimaNota.ru - самый крупный в мире бесплатный архив песенных текстов, аккордов, табулатур и нот


Pod - Rise Against - текст песни, таба, бас-таба, видео

Регистрация Запомнить меня
Войти через:  Facebook Google Twitter Vk Yandex Mail.ru

Pod - Rise Against - текст песни, таба, бас-таба, видео

Печатать
Просмотров: 258
Song: Rise Against
Band: P.O.D.
Album: When Angles And Serpents Dance
Tuning: Standard


Here are the lead parts to this beautiful song. I didn't tab the solo cause
you need some CRAZY effects.  Enjoy.


Lead Intro/Bridge:

e|------2--5---2h5p2------------2--5---2h5p2----|--------2--5---2h5p2------------2--5---2h5p2----|
B|0--3-----------------3--0--3-----------------3|--0--3-----------------3--0--3-----------------3|
G|----------------------------------------------|------------------------------------------------|
D|----------------------------------------------|------------------------------------------------|
A|----------------------------------------------|------------------------------------------------|
E|----------------------------------------------|------------------------------------------------|

e|---------2---0h2p0---------------2---0h2p0----|-----------2---0h2p0---------------2---0h2p0----|
B|---2--3--------------2-----2--3--------------2|-----2--3--------------2-----2--3--------------2|
G|0-----------------------0---------------------|--0-----------------------0---------------------|
D|----------------------------------------------|------------------------------------------------|
A|----------------------------------------------|------------------------------------------------|
E|----------------------------------------------|------------------------------------------------|


Lead Verse:
(Palm muted)

e|------------------------------------------------|
B|-----------0------------------------------------|
G|-----0--2-----2-----0--2-----0--2-----0--2-----0|
D|--4--------------4--------4--------4--------4---|
A|------------------------------------------------|
E|------------------------------------------------|


Lead Chorus

e|-10--9--------------9--9--9--9--9--9--9--9--9--9|--9--7------------7--7--7--7--9--9--9-10-10-10|
B|-------10---------------------------------------|--------8-------------------------------------|
G|----------11--~--~------------------------------|-----------9--~~------------------------------|
D|------------------------------------------------|----------------------------------------------|
A|------------------------------------------------|----------------------------------------------|
E|------------------------------------------------|----------------------------------------------|
Добавлено: 29.03.2012
Другие материалы по этой песне:

Страница создана 29.03.2012
http://primanota.ru/pod/rise-against-chords.htm
Привет, Гость.
Предлагаем пройти революционный курс по гитаре.
Подарок от PrimaNota.Ru, забирай!