PrimaNota.ru - самый крупный в мире бесплатный архив песенных текстов, аккордов, табулатур и нот


Pod - Murder One - текст песни, таба, перевод, видео

Регистрация Запомнить меня
Войти через:  Facebook Google Twitter Vk Yandex Mail.ru

Pod - Murder One - текст песни, таба, перевод, видео

Печатать
Просмотров: 190
P.O.D. –  Murder One
Tuning: Drop D
Intro: with wah rest with Distortion
E-----------------------|
B----4b5b4------4b5b4---|
G-----------------------|
D-----------------------|
A-----------------------|
D-----------------------|

Verse 1
E-----------------------------------------------------------|
B-----------------------------------------------------------|
G-----------------------------------------------------------|
D---3-0-3---XXX---3-0-3---XXX---2-0-2---XXX---2-0-2---XXX---|
A---3-0-3---XXX---3-0-3---XXX---2-0-2---XXX---2-0-2---XXX---|
D---3-0-3---XXX---3-0-3---XXX---2-0-2---XXX---2-0-2---XXX---|

E-----------------------------------------------------------|
B-----------------------------------------------------------|
G-----------------------------------------------------------|
D---3-0-3---XXX---3-0-3---XXX---2-0-2---XXX---2-0-2---XXX---|
A---3-0-3---XXX---3-0-3---XXX---2-0-2---XXX---2-0-2---XXX---|
D---3-0-3---XXX---3-0-3---XXX---2-0-2---XXX---2-0-2---XXX---|

E---------------------------------------------------|
B---------------------------------------------------|
G---------------------------------------------------|
D---------------------------------------------------|
A-------5-----------5------------3----------3-------|
D---3----3—0-----3---3-0-----2----2-0----2---2-0----|

E---------------------------------------------------|
B---------------------------------------------------|
G---------------------------------------------------|
D---------------------------------------------------|
A-------5-----------5------------3----------3-------|
D---3----3—0-----3---3-0-----2----2-0----2---2-0----|

Pre Chorus 1
E-------------------------------------------------|
B-------------------------------------------------|
G-------------------------------------------------|
D---2-0-2----------2-0-2-----------2-0-2----------|
A---2-0-2----------2-0-2-----------2-0-2----------|
D---2-0-2----------2-0-2-----------2-0-2----------|

Chorus
E-------------------------------------------------------|
B-------------------------------------------------------|
G-------------------------------------------------------|
D---0-0----------3-3----------0-0----------3-3----------|    2x
A---0-0----------3-3----------0-0----------3-3----------|
D---0-0----------3-3----------0-0----------3-3----------|
Then
E----------------|
B----------------|
G----------------|
D---0-0----------|
A---0-0----------|
D---0-0----------|
Verse 2

E-----------------------------------------------------------|
B-----------------------------------------------------------|
G-----------------------------------------------------------|
D---3-0-3---XXX---3-0-3---XXX---2-0-2---XXX---2-0-2---XXX---|
A---3-0-3---XXX---3-0-3---XXX---2-0-2---XXX---2-0-2---XXX---|
D---3-0-3---XXX---3-0-3---XXX---2-0-2---XXX---2-0-2---XXX---|

E-----------------------------------------------------------|
B-----------------------------------------------------------|
G-----------------------------------------------------------|
D---3-0-3---XXX---3-0-3---XXX---2-0-2---XXX---2-0-2---------|
A---3-0-3---XXX---3-0-3---XXX---2-0-2---XXX---2-0-2---------|
D---3-0-3---XXX---3-0-3---XXX---2-0-2---XXX---2-0-2---2-2-2-|

E---------------------------------------------------|
B---------------------------------------------------|
G---------------------------------------------------|
D---------------------------------------------------|
A-------5-----------5------------3----------3-------|
D---3----3—0-----3---3-0-----2----2-0----2---2-0----|

E---------------------------------------------------|
B---------------------------------------------------|
G---------------------------------------------------|
D---------------------------------------------------|
A-------5-----------5------------3----------3-------|
D---3----3—0-----3---3-0-----2----2-0----2---2-0----|

Pre Chorus 2
E-----------------|
B-----------------|
G-----------------|
D---0-0-----------|
A---0-0-----------|
D---0-0-----------|

Chorus
E-------------------------------------------------------|
B-------------------------------------------------------|
G-------------------------------------------------------|
D---0-0----------3-3----------0-0----------3-3----------|    2x
A---0-0----------3-3----------0-0----------3-3----------|
D---0-0----------3-3----------0-0----------3-3----------|
Then
E-----------------------------|
B-----------------------------|
G-----------------------------|
D---0-0----------0-0----------|
A---0-0----------0-0----------|
D---0-0----------0-0----------|
Bridge Part One
E-----------------------------------------------------------------|
B-----------------------------------------------------------------|
G-----------------------------------------------------------------|
D-----------------------------------------------------------------|
A-----------------------------------------------------------------|
D---2-0-2-0-2---2-0-2-3-2—--2-0-2-----2-0-2-3-2---2-0-2---2-0-0---|
E-----------------------------------------------------------------|
B-----------------------------------------------------------------|
G-----------------------------------------------------------------|
D-----------------------------------------------------------------|
A-----------------------------------------------------------------|
D---2-0-2-0-2---2-0-2-3-2—--2-0-2-----2-0-2-3-2---2-0-0-----------|

E----------------------------------------------------------------|
B----------------------------------------------------------------|
G----------------------------------------------------------------|
D----------------------------------------------------------------|
A----------------------------------------------------------------|
D---2-0-2-0-2---2-0-2-3-2—--2-0-2-----2-0-2-3-2---2-0-2---2-0-0--|

E----------------------------------------------------------------|
B----------------------------------------------------------------|
G----------------------------------------------------------------|
D----------------------------------------------------------------|
A----------------------------------------------------------------|
D---2-0-2-0-2---2-0-2-3-2—--2-0-2-----2-0-2-3-2---2-0-0----------|

Bridge Part Two 2 x
E-------------------------------------------------------------------|
B-------------------------------------------------------------------|
G-------------------------------------------------------------------|
D---2-0-2-0-2---2-0-2-3-2—--2-0-2-----2-0-2-3-2---2-0-0---2/3-3-3-3-|
A---2-0-2-0-2---2-0-2-3-2—--2-0-2-----2-0-2-3-2---2-0-0---2/3-3-3-3-|
D---2-0-2-0-2---2-0-2-3-2—--2-0-2-----2-0-2-3-2---2-0-0---2/3-3-3-3-|

Last Chorus

Chorus
E-------------------------------------------------------|
B-------------------------------------------------------|
G-------------------------------------------------------|
D---0-0----------3-3----------0-0----------3-3----------|    2x
A---0-0----------3-3----------0-0----------3-3----------|
D---0-0----------3-3----------0-0----------3-3----------|
Then the end
E----------------------------------------------------------|
B----------------------------------------------------------|
G----------------------------------------------------------|
D---0-0----------0-0-------------0-0----------0-0----------|
A---0-0----------0-0-------------0-0----------0-0----------|
D---0-0----------0-0-------------0-0----------0-0----------|



Legend:
B = bend
Добавлено: 26.03.2012
Другие материалы по этой песне:
  • Аккорды и текст

Страница создана 26.03.2012
http://primanota.ru/pod/murder-one-chords.htm
Привет, Гость.
Предлагаем пройти революционный курс по гитаре.
Подарок от PrimaNota.Ru, забирай!