PrimaNota.ru - самый крупный в мире бесплатный архив песенных текстов, аккордов, табулатур и нот


Pod - Mistakes & Glories - текст песни, таба, видео

Регистрация Запомнить меня
Войти через:  Facebook Google Twitter Vk Yandex Mail.ru

Pod - Mistakes & Glories - текст песни, таба, видео

Печатать
Просмотров: 161
-----------------------------------------------------------------
Mistakes & Glories - P.O.D.
-----------------------------------------------------------------
Tabbed by:John
Email:Janek.Khyr@seznam.cz


Intro:
e|-----------------------------------------------------------|
B|--12--12-12-12^-12--12-12-12^-13--13-13-13-----------------|
G|-------------------------------------------12-11-11-11-11^-|(2x)
D|-----------------------------------------------------------|
A|-----------------------------------------------------------|
E|-----------------------------------------------------------|

Verse:
e|-------------------------------------------|
B|-------------------------------------------|
G|-------------------------------------------|(4x)
D|-------------------------------------------|
A|--0-5--0-0-5--0-0-4------------------------|
E|--0-3--0-0-3--0-0-2------------------------|

Intro:2x

Pre-chorus:
e|-------------------------------------------|
B|-------------------------------------------|
G|-------------------------------------------|(4x)
D|-------------------------------------------|
A|--0-5--------------------------------------|
E|--0-3--3-3-3-3-4-4-4-4-5-5-5-5-6-6-6-6-----|

Intro:2x
Pre-corus:4x

Chorus:
e|---------------------------------(2x)----------|--------|
B|-----------------------------------------------|--------|
G|-----------------------------------------------|--------|(2x)
D|-----------------------------------------------|---2----|
A|--8--(11x)----5--(11x)----6--(11x)----3--(11x)-|---2----|
E|--6-----------3-----------4-----------1--------|---0----|

Bridge:
e|--------------------------------------------------|
B|--------------------------------------------------|
G|--------------------------------------------------|(8x)
D|--12-12-12-12-12-12-10-10-10-10-13-13-13-13-------|
A|--------------------------------------------------|
E|--------------------------------------------------|

Solo:
e|---------------------------------------------------------------|
B|---------------------------------------------------------------|
G|-14^--14-12-14-15-17-15-14-15-17-15-14-12/13/12/14/13/12-12-16-|
D|---------------------------------------------------------------|
A|---------------------------------------------------------------|
E|---------------------------------------------------------------|

e|---------------------------------------------------------------|
B|------------------------------------19-20-21^------------------|
G|12-15-17/15-18/16-19/17-18-19-20-21----------------------------|
D|---------------------------------------------------------------|
A|---------------------------------------------------------------|
E|---------------------------------------------------------------|

Pre-chorus:4x
Chorus:6x
Pre-chorus:3x

Outro:
e|---------------------------------------------------------------|
B|---------------------------------------------------------------|
G|---------------------------------------------------------------|
D|---------------------------------------------------------------|
A|--0-5-0-0-6-0-0-7-0-0-8----------------------------------------|
E|--0-3-0-0-4-0-0-5-0-0-6----------------------------------------|


| /  slide up
| \  slide down


Добавлено: 30.06.2012
Другие материалы по этой песне:
  • Аккорды и текст

Страница создана 03.06.2012
http://primanota.ru/pod/mistakes-and-glories-chords.htm
Привет, Гость.
Предлагаем пройти революционный курс по гитаре.
Подарок от PrimaNota.Ru, забирай!