PrimaNota.ru - самый крупный в мире бесплатный архив песенных текстов, аккордов, табулатур и нот


Pod - Higher - аккорды и текст, таба, видео

Регистрация Запомнить меня
Войти через:  Facebook Google Twitter Vk Yandex Mail.ru

Pod - Higher - аккорды и текст, таба, видео

Печатать
Просмотров: 343
Higher
Pod
P.O.D. - HIGHER
---------------
(from the album: "So Cal Sessions")


INTRO:

   Eb                             F
e|------------------------------|------------------------------|
B|------------------------------|------------------------------|
G|------------------------------|------------------------------|
D|-------8---8---------8---10-8-|-------8---8---------8---10-8-|
A|-6---6---6-----6---6---6------|-8---8---8-----8---8---8------|
D|------------------------------|------------------------------|

   Gm                             Cm            Dm            --> Eb
e|------------------------------|------------------------------|-----||
B|------------------------------|------------------------------|-----||
G|------------------------------|------------------------------|--8--||
D|-------8---8---------8---10-8-|-------5---5---------7---7----|--8--||
A|-10--10--10----10--10--10-----|-3---3---3-----5---5---5------|--6--||
D|------------------------------|------------------------------|-----||


VERSE 1:

     Gm
I can see the unthinkable beyond visions and dreams.
       Gm
Some interpret the sings it's all a mystery to me
    Eb
but my faith sees the invisible,
 Cm
looks into the soul that come across the unseen.
Gm
   Am I blind or do I see for the first time
      Gm
in a world of hate where love's denied?
    Eb
But my faith believes the impossible
 Cm                       
here for the taking so I'm ready to go


CHORUS:

    Eb        F
Higher - to place I've only imagined
    Gm
Higher - farther than I've ever gone
    Eb           F
Higher - it will all make sense when I get there
          Gm                                       Cm     Dm           Eb
All the things I know and the things I don't I'm standing on my own.


VERSE 2:

             Gm
This unparalleled life is a gift and not my own.
      Gm
So I keep on walking through the valley of the unknown.
Eb
My faith redeems the most despicable, 
Cm
low life, no good man like me.
Gm
   My life is sketched out on these pages like a map.
      Gm
Been good, I've been bad but it shows you where I'm at.
 Eb
Look real close it'll show you how to find
      Cm
the treasure of your soul, on love divine.


CHORUS:

    Eb        F
Higher - to place I've only imagined
    Gm
Higher - farther than I've ever gone
    Eb           F
Higher - it will all make sense when I get there
          Gm                                       Cm     Dm
All the things I know and the things I don't I'm standing on my own.


BRIDGE:

   Cm               Dm     Eb     Bb                             (Cm)
e|---|------------------------------|--------------------------------|
B|---|------------------------------|--------------------------------|
G|-5-|--5-5-5-5-5-5-7--7-7-8--8-8---|----------------------------(5)-|
D|---|----------------------------8-|--8-8-8-8-8-8-8-8-8-8-8-8-8-----|
A|---|------------------------------|--------------------------------|
D|---|------------------------------|--------------------------------|
                                      Take me higher. I want to go higher.

   Cm               Dm     Eb     Bb               F             (Cm)
e|---|------------------------------|--------------------------------||
B|---|------------------------------|--------------------------------||
G|-5-|--5-5-5-5-5-5-7--7-7-8--8-8---|----------------------------(5)-||
D|---|----------------------------8-|--8-8-8-8-8-8-7--7-7-7-7-7-7----||
A|---|------------------------------|--------------------------------||
D|---|------------------------------|--------------------------------||
                                 So take me higher. I want to go higher.
   
Cm                        Dm      Eb
  If that's all that you have to give
Bb
  than take me higher. I want to go higher.
Cm                   Dm         Eb
  Go ahead. I won't settle for less.
Bb                   F           Eb
  Take me higher. I want to go.


VERSE 3:

           Gm
So you can do what you want and say what you want,
 Gm
live how you want and die how you want
     Eb
but this faith has put my mind at ease,
Cm       
souls at peace and my spirit flies free.


CHORUS (2x):

    Eb        F
Higher - to place I've only imagined
    Gm
Higher - farther than I've ever gone
    Eb           F
Higher - it will all make sense when I get there
          Gm                                       Cm     Dm               Eb
All the things I know and the things I don't I'm standing on my own. (I'm standing)



---
words and music by:  P.O.D.
tabbed by:           Jakob D. Siegler
---
That's it.
Please send me your corrections if there are any mistakes.
If you like, please rate this tab.
Thx. J.
Добавлено: 17.03.2015
Другие материалы по этой песне:
  • Аккорды и текст

Страница создана 26.08.2013
http://primanota.ru/pod/higher-chords.htm
Привет, Гость.
Предлагаем пройти революционный курс по гитаре.
Подарок от PrimaNota.Ru, забирай!