PrimaNota.ru - самый крупный в мире бесплатный архив песенных текстов, аккордов, табулатур и нот


Pod - Follow Me - аккорды и текст, таба, бас-таба, перевод, видео

Регистрация Запомнить меня
Войти через:  Facebook Google Twitter Vk Yandex Mail.ru

Pod - Follow Me - аккорды и текст, таба, бас-таба, перевод, видео

Печатать
Просмотров: 136
Уроки эстрадного вокала в Санкт-Петербурге
Follow Me
Pod
Dropped D tuning (Can be played in Standard, but dropped D is easier)

Intro:		8x with little variation
[E--------------
B--------------
G--------------
D-2-2--2--5-3--
A-2-2--2-------
D-2-2--2-------]

Then: Play this chord over and over until...
[E--------
B--------
G-9-9--9-
D-9-9--9-
A-7-7--7-
D--------]

Right before the chorus starts Marcos plays this:
[E--------------
B--------------
G--------------
D-3-2-2--2-0-0-
A-3-2-2--------
D-3-2-2--------]

Chorus:		"Breathe..."
[E---------------------x-x-x-x-x-x-
B---------------------x-x-x-x-x-x-
G---------------------x-x-x-x-x-x-
D-2-2--2-0-2--2-2--x-x-x-x-x-x----
A-2-2----------2-2--x-x-x-x-x-x---
D-2-2----------2-2--x-x-x-x-x-x---]

Then hold the E ([222xxx])

Then the bass plays:
[G----------------------------------
D--------2~------------2-0-2-0~----
A----------------------------------
D-2-2-2--------2-2-2---------------]

Verse:		[E-------------------------
B-------------------------
G-------------------------
D-2~--2b~---2~----2-0-2-0~
A-2~----------2~----------
D-2~----------2~----------]

Bridge to Chorus:
Is basically just Marcos raking the strings
[E-x-x-x-x-x-x-------
B-x-x-x-x-x-x-------
G-x-x-x-x-x-x-------
D-x-x-x-x-x-x-2p0---
A-x-x-x-x-x-x-------
D-x-x-x-x-x-x-------]

Right before the chorus starts Marcos plays this:
[E-----------------
B-----------------
G-----------------
D-3-2-2--2-0-0----
A-3-2-2-----------
D-3-2-2-----------]

Chorus
Verse
Bridge to Chorus
Play the E ([x799xxx]) many times
Chorus
Bridge to Chorus
End on the E ([222xxx])
Добавлено: 07.09.2013
Другие материалы по этой песне:
  • Аккорды и текст

Страница создана 24.06.2012
http://primanota.ru/pod/follow-me-chords.htm
Привет, Гость.
Предлагаем пройти революционный курс по гитаре.
Подарок от PrimaNota.Ru, забирай!