PrimaNota.ru - самый крупный в мире бесплатный архив песенных текстов, аккордов, табулатур и нот


Pod - Breathe Babylon - аккорды и текст, таба, видео

Регистрация Запомнить меня
Войти через:  Facebook Google Twitter Vk Yandex Mail.ru

Pod - Breathe Babylon - аккорды и текст, таба, видео

Печатать
Просмотров: 145
Breathe Babylon
Pod
Dropped D tuning

Intro:		[E---------------------------
B--------------7-7-7-7-7----
G--------------5-5-5-5-5----
D-7-7-7-7-7-----------------
A-5-5-5-5-5-----------------
D---------------------------]

Intro:		(second part)
[E-------
B-------
G-------
D-1-1-1-
A-1-1-1-
D-1-1-1-]

Chorus:		[E--------------
B--------------
G--------------
D-4/34--4/34-
A-4/34--4/34-
D-4/34--4/34-]

Verse:		[E---------------------------
B---------------------------
G---------------------------
D---------------------------
A-5-5-5-5/63--3/53--3/53-
D---------------------------]

Chorus
Verse
Chorus

Chorus #2:	[E---------------------------
B---------------------------
G---------------------------
D---------------------------
A-5-5-5-8-6-5--5-5/63------
D---------------------------]

End Chorus #2:	[E------
B------
G------
D------
A-5-5--
D------]

Verse
Chorus
Добавлено: 05.11.2013
Другие материалы по этой песне:

Страница создана 15.03.2012
http://primanota.ru/pod/breathe-babylon-chords.htm
Привет, Гость.
Предлагаем пройти революционный курс по гитаре.
Подарок от PrimaNota.Ru, забирай!