PrimaNota.ru - самый крупный в мире бесплатный архив песенных текстов, аккордов, табулатур и нот


Poco - What If I Should Say I Love You - аккорды и текст, видео

Регистрация Запомнить меня
Войти через:  Facebook Google Twitter Vk Yandex Mail.ru

Poco - What If I Should Say I Love You - аккорды и текст, видео

Печатать
Просмотров: 162
Уроки эстрадного вокала в Санкт-Петербурге
What If I Should Say I Love You
Poco
SONG:   WHAT IF I SHOULD SAY I LOVE YOU?
ARTIST: POCO
TAB BY: DON CZARSKI
EMAIL:  GUITARZAN7@HOTMAIL.COM


            WHAT IF I SHOULD SAY I LOVE YOU?
                         POCO

INTRO:

GUITAR 2: (PLAYS CHORDS)
                      E          B

 GUITAR 1:
E -----------------------------------
B --4h5p4----------------------------
G --------6-4------5/8--8\6-4--------
D ------------6-4--------------6-4---
A -----------------------------------
E -----------------------------------


GUITAR 2: (PLAYS CHORDS)
                      E          B

 GUITAR 1:
E -----------------------------------
B --4h5p4----------------------------
G --------6-4------------------------
D ------------6-4--4/6~~6-4----------
A --------------------------6-4------
E -------------------------------7---


GUITAR 2: (PLAYS CHORD)
                   E    

 GUITAR 1:               
E ---------------------------------
B --4h5p4--------------------------
G --------6-4----------------------
D ------------6-4--6---------------
A ---------------------------------
E ---------------------------------



VERSE:
                        B
What if I should say I love you?
E                       B
  Would you spend some time?
E                                 B
  I'll tell you what I'm thinkin' of you
E             Ebm                   B   
  But if I do, do you have to know why?
 

PRE-CHORUS:
     E         
When I 
 C#m
Look at you, 
Ebm                B
Are you wonderin' who

E 
I 
C#m
Am to do 
Ebm              B
Such a thing to you?


CHORUS:
   A
I bet you know 
                     B    E            B
That you're breakin' my heart ... my heart
   A
I bet you know ... 
 F   F#    F# F# F# F# F#      B
My heart.


GUITAR 2: (PLAYS CHORDS)
                      E          B

 GUITAR 1:
E -----------------------------------
B --4h5p4----------------------------
G --------6-4------5/8--8\6-4--------
D ------------6-4--------------6-4---
A -----------------------------------
E -----------------------------------


GUITAR 2: (PLAYS CHORD)
                   E    

 GUITAR 1:               
E ---------------------------------
B --4h5p4--------------------------
G --------6-4----------------------
D ------------6-4--6---------------
A ---------------------------------
E ---------------------------------


VERSE:
                        B
What if I should say I love you?
E                                 B
  Baby, would you steal away my heart?
E                               B
  And could the moment last for always
E              Ebm             B    
  And ever or should we even start?


PRE-CHORUS:
      E   
When you 
C#m
Look at me, 
Ebm                B
All the world can see

E
I 
 C#m
Suddenly 
Ebm                B
Want your love for me


CHORUS:
   A
I bet you know 
                     B    E         B
That you're breakin' my heart ... heart
   A
I bet you know ... 
 F   F#    F# F# F# F# F#      B  E
My heart.


OUTRO:
B                           E
  Maybe someday I would be gone
B                                        E
  Then you'd be alone wonderin' what's wrong
B                             F# Abm   Abm
  How could it begin and then be gone?



Добавлено: 01.06.2016
Другие материалы по этой песне:
  • Аккорды и текст

Страница создана 09.07.2012
http://primanota.ru/poco/what-if-i-should-say-i-love-you-chords.htm
Привет, Гость.
Предлагаем пройти революционный курс по гитаре.
Подарок от PrimaNota.Ru, забирай!