PrimaNota.ru - самый крупный в мире бесплатный архив песенных текстов, аккордов, табулатур и нот


Pocket Change - I Have Decided - таба, видео

Регистрация Запомнить меня
Войти через:  Facebook Google Twitter Vk Yandex Mail.ru

Pocket Change - I Have Decided - таба, видео

Печатать
Просмотров: 71
		   Song; I Have Decided
Artist: Pocket Change
Album; Steadfast
Record company: Liquid disc (www.liquidisc.com)
Tabbed: Chris Rozycki (prheier@aol.com)

Same words are in the hymn book for I have decided to follow Jesus!

G------------
D-----------9
A-----------9            8 times
E-----7--7--7

G-----------9
D-----------9            4 times
A-----7--7--7
E------------

G------------
D-----------9
A-----------9           12 times
E-----7--7--7



G----------8
D----------8             4 times
A----6--6--6
E-----------



G----------------------9--------
D-------------9--------9-------9
A-------------9--7--7--7-------9     after this drums and bass come in, and play 
E-----7--7--7------------7--7--7      really really fast.

this is the rest of it repeated over and over.

G-----------9-----------8------------9----------
D-----9-----9-----9-----8------9-----9-----9----
A-----9-----7-----9-----6------9-----7-----9----
E-----7-----------7------------7-----------7----

this is my first submit, so please let me know how i did. thanx. and keep
rockin for JESUS!!!!!     
Добавлено: 19.08.2013
Другие материалы по этой песне:
  • Аккорды и текст

Страница создана 19.08.2013
http://primanota.ru/pocket-change/i-have-decided-chords.htm
Привет, Гость.
Предлагаем пройти революционный курс по гитаре.
Подарок от PrimaNota.Ru, забирай!