PrimaNota.ru - самый крупный в мире бесплатный архив песенных текстов, аккордов, табулатур и нот


Pocket Change - Comfort Zome - таба, видео

Регистрация Запомнить меня
Войти через:  Facebook Google Twitter Vk Yandex Mail.ru

Pocket Change - Comfort Zome - таба, видео

Печатать
Просмотров: 73
		   Pocket Change
comfort zone
steadfast
P&C  Gigantic Planet Inc.
kidsonly@pe.net  mac crook



sorry if its screwed up first time writing tab. sorry

tabbed and written by MAC Crook

it's a cool song hope you have fun!!!

intro, verse thing: it's kind of palm muted kind of not, see CD>
|-------------------------------
|-------------------------------
|-----------9--9----5--5---7--7-
|----5--5---9--9----5--5---7--7-
|----5--5---7--7----3--3---5--5-
|----3--3-----------------------
 

chorus: 
|-------------------------------------------
|-------------------------------------------
|--------------------------5--------------7-
|------5------4--2---------5-----2--------7-
|------5------4--2---------3-----2--------5-
|------3------2--0---------------0----------

I think thats how it goes

     
Добавлено: 11.10.2013
Другие материалы по этой песне:
  • Аккорды и текст

Страница создана 11.10.2013
http://primanota.ru/pocket-change/comfort-zome-chords.htm
Привет, Гость.
Предлагаем пройти революционный курс по гитаре.
Подарок от PrimaNota.Ru, забирай!