PrimaNota.ru - самый крупный в мире бесплатный архив песенных текстов, аккордов, табулатур и нот


P!Nk - Just Give Me Reason - таба, видео

Регистрация Запомнить меня
Войти через:  Facebook Google Twitter Vk Yandex Mail.ru

P!Nk - Just Give Me Reason - таба, видео

Печатать
Просмотров: 54
JUST GIVE ME A REASON 
by: pink
tabbed by: craftoon
country: philippines
tuning: standard
contact: +639098998909
facebook: craftoon@easy.com
twitter: @craftoon13

message: this is my version of just give me a reason by pink.
         it takes me 3 days to complete this tab because i
         just listen to the song for several times, im not
         quite sure if this is correct ot good but atleast i made it
         on my own. enjoy it guys and thanks for viewing :) 

Intro: Em-A-D-G, C-Bm-Am-G



(*1)
e|---------------5----------------------|
B|-8-8-8----7--5---7----8---------------|
G|-9-9-9----7--6---7-------7------------|
D|--------------------------------------|
A|-7-7-7----5--4---5--------------------|
E|--------------------------------------|

(*2)
e|--------------------------------------|
B|-5---4---1----------------------------|
G|-5---4---2-----------3----------------|
D|---------2-------2h4---4P2---0--------|
A|-3---2---0----------------------------|
E|-------------------------------3------|

[verse 1]

[(.") msg]: here in verse 1 and refrain 1, i put some plucking that might you wanna play.
            but if you dont like it just ignored it :)

G              
Right from the start

e|-----------|
B|---0-0-0---|
G|-----------|
D|-----------|
A|-----------|
E|-3---------|

           C                  Em
You were a thief you stole my heart

e|----------------------|
B|-----0-1-1-1p0-0------|
G|-0-2--------------2---|
D|----------------------|
A|-------3--------------|
E|-----------------0----|

    C                 G
And I your willing victim

e|---0---1-0-----------0--|
B|-----1--------1-0-----0-|
G|-0----------2------0----|
D|------------------------|
A|---3--------------------|
E|----------------3-------|

G                                  C                     Em                    
I let you see the parts of me that weren't all that pretty

e|---------------------------------|
B|---0-0-0--------0-1-1-1p0-0------|
G|------------0-2--------------2---|
D|---------------------------------|
A|------------------3--------------|
E|-3--------------------------0----|

         C                      G 
And with every touch you fixed them

e|---0---1-0-----------0--|
B|-----1--------1-0-----0-|
G|-0----------2------0----|
D|------------------------|
A|---3--------------------|
E|----------------3-------|


[refrain 1]

    Em                  A         D    G
Now you've been talking in your sleep  oh oh

e|---3-3-3-2-0--5--2-3--|
B|-0------------------3-|
G|----------------------|
D|-----------------0----|
A|-----------0----------|
E|---0----------------3-|

Em               A      D   G
Things you never say to me  oh oh 

e|---3-3-3-2-0--5--2-3--|
B|-0------------------3-|
G|----------------------|
D|-----------------0----|
A|-----------0----------|
E|---0----------------3-|

Em                  A    D
Tell me that you've had enough

e|---3-3-3-2-0--5--2-|
B|-0-----------------|
G|-------------------|
D|-----------------0-|
A|-----------0-------|
E|---0---------------|

G      C     Bm   Dsus4 D
Of our love, our love

e|-3--0-------------------|
B|--3----3--1--0----------|
G|----------------2--0--2-|
D|----------------------0-|
A|----------3-----2-------|
E|----3-------------------|


[Chorus]

G                            D/F#
Just give me a reason just a little bit's enough
       Em                            Bm
Just a second we're not broken just bent
           D
And we can learn to love again
G                            D/F#                        Em
It's in the stars, It's been written in the scars on our hearts
                       Bm
We're not broken just bent
           D              G
And we can learn to love again


[Verse 2]

   G                              C              Em
Im sorry I don't understand where all of this is coming from
  C                    G
I thought that we were fine

(Oh, we had everything)
     G                              C                 Em
Your head is running wild again, my dear we still have everything
    C               G
And its all in your mind

(Yeah, but this is happening)

[refrain 2]

Em                 A        D       G
You've been having real bad dreams  Oh oh
    Em             A        D   G
You used to lie so close to me  Oh oh
        Em                A     D
There's nothing more than empty sheets
  G         C     Bm   Am           C     G   D
Between out love, our love, oh our love, our love


[repeat Chorus except last chords (G)]


[bridge]

Em                 Bm
Oh, tears ducts and rust
                C
I'll fix it for us
                 D
We're collecting dust but our love's enough
Em                Bm
You're holding it in, You're pouring a drink
C                Am  Bm C  D  Dsus4(break)
No nothing is as bad as it seems

We'll come clean

[repeat Chorus no instrument except drum]

[repeat Chorus]

G  D/F#                    Em
ohhh, we can learn to love again
      Bm       D              G
ohhh, we can learn to love again
D/F#  Em
    ohh
Em                          Bm              D
That we're not broken just bent and we can learn to love again

Outro: Em-A-D-G, C-Bm-Am-G
       (*1)(*2)

[thanks for viewing my tabbed (.")]


[craftoon]
Добавлено: 03.04.2016
Другие материалы по этой песне:
  • Аккорды и текст

Страница создана 03.04.2016
http://primanota.ru/pnk/just-give-me-reason-chords.htm
Привет, Гость.
Предлагаем пройти революционный курс по гитаре.
Подарок от PrimaNota.Ru, забирай!