PrimaNota.ru - самый крупный в мире бесплатный архив песенных текстов, аккордов, табулатур и нот


Pmtoday - Celebration - таба, видео

Регистрация Запомнить меня
Войти через:  Facebook Google Twitter Vk Yandex Mail.ru

Pmtoday - Celebration - таба, видео

Печатать
Просмотров: 48
-------------------------------------------------------------------------------
                             Celebration - Pmtoday
-------------------------------------------------------------------------------
Tabbed by: Matt Cohen
E-mail: mattcohen414@gmail.com

Tuning: Standard
Effects: Delay
Guide:
  +: Harmonic
  x: Mute

00:00-00:19
e|--12+--|-------------------------------------------------------------------|
B|--12+--|-------1-----------1-----------0-----------0-----------------------|
G|--12+--|----2-----------2-----------0-----------0--------------------------|
D|-------|--2-----------2-----------2-----------2----------------------------|
A|-------|-------------------------------------------------------------------|
E|-------|-------------------------------------------------------------------|
            X2

00:19-00:35
e|---------------------------------------------------------------------------|
B|-------3-------------------0----------1------------------------------------|
G|----4-------------------0----------2--------------4------------------------|
D|--4-------------------2----------2-----------4-----------------------------|
A|---------------------------------------------------------------------------|
E|---------------------------------------------------------------------------|

00:36-00:51
e|---------------------------------------------------------------------------|
B|-------3-------3-------0-------0-------1-------1-------------3-------------|
G|----4-------4-------0-------0-------2-------2----------4-----4-------------|
D|--4-------4-------2-------2-------2-------2-------4----------4-------------|
A|---------------------------------------------------------------------------|
E|---------------------------------------------------------------------------|

00:52-01:10
e|-----------------------------0---------------------------------------------|
B|--0----0-----------0----0----0-------0----0--------------------------------|
G|--0-----0----------0----0----0-------0----0--------------------------------|
D|--2------2---------2----4----2-------2----4--------------------------------|
A|--3-------3--------3----5------------3----5--------------------------------|
E|---------------------------------------------------------------------------|

01:11-01:42
e|--0----0----0------------------0----0----0---------------------------------|
B|--3----3----0----0----0--------3----3----0----0-------x----0---------------|
G|--4----4----0----0----0--------4----4----0----0-------x----0---------------|
D|--5----4----2----4----2--------5----4----2----4-------x----2---------------|
A|-----------------5----3-----------------------5-------x----3---------------|
E|---------------------------------------------------------------------------|

01:43-01:57
e|---------------------------12+---------------------------------------------|
B|--0----0----0--------------12+---------------------------------------------|
G|--0----0----0--------------12+---------------------------------------------|
D|--2----4----0--------------------------------------------------------------|
A|--3----5----2--------------------------------------------------------------|
E|---------------------------------------------------------------------------|

Добавлено: 16.12.2015
Другие материалы по этой песне:
  • Аккорды и текст

Страница создана 16.12.2015
http://primanota.ru/pmtoday/celebration-chords.htm
Привет, Гость.
Предлагаем пройти революционный курс по гитаре.
Подарок от PrimaNota.Ru, забирай!