PrimaNota.ru - самый крупный в мире бесплатный архив песенных текстов, аккордов, табулатур и нот


Pluton Svea - Thailandska Smapojkar - таба, видео

Регистрация Запомнить меня
Войти через:  Facebook Google Twitter Vk Yandex Mail.ru

Pluton Svea - Thailandska Smapojkar - таба, видео

Печатать
Просмотров: 103
Уроки эстрадного вокала в Санкт-Петербурге
Thailandska Smapojkar By:Pluton Svea.

Main riff:
   A            F            C            G
E|----------------------------------------------------|
B|----------------------------------------------------|
G|----------------------------------------------------|
D|-2-2-2-2-2-2---------------5-5-5-5-5-5--------------|
A|-0-0-0-0-0-0--3-3-3-3-3-3--3-3-3-3-3-3--5-5-5-5-5-5-|
E|--------------1-1-1-1-1-1---------------3-3-3-3-3-3-|

Interlude:
   A      G  A      G  A      G  A      G
E|----------------------------------------|
B|----------------------------------------|
G|----------------------------------------|
D|----------------------------------------|
A|-7-7-7--5--7-7-7--5--7-7-7--5--7-7-7--5-|
E|-5-5-5--3--5-5-5--3--5-5-5--3--5-5-5--3-|

Chorus:
   F           G           A
E|-------------------------------------------------|
B|-------------------------------------------------|
G|-------------------------------------------------|
D|-------------------------2-2-2-2-2-2-2-2-2-2-2-2-|
A|-3-3-3-3-3-3-5-5-5-5-5-5-0-0-0-0-0-0-0-0-0-0-0-0-|
E|-1-1-1-1-1-1-3-3-3-3-3-3-------------------------|

   F           G           B C           B C
E|-----------------------------------------------------|
B|-----------------------------------------------------|
G|-----------------------------------------------------|
D|-------------------------4-5-5-5-5-5-5-4-5-5-5-5-5-5-|
A|-3-3-3-3-3-3-5-5-5-5-5-5-2/3-3-3-3-3-3-2/3-3-3-3-3-3-|
E|-1-1-1-1-1-1-3-3-3-3-3-3-----------------------------|

Sorry I could not tab out the lead guitar.

By:themechanix100
Добавлено: 22.07.2013
Вам также может быть интересно:
Другие материалы по этой песне:
  • Аккорды и текст

Страница создана 22.07.2013
http://primanota.ru/pluton-svea/thailandska-smapojkar-chords.htm
Привет, Гость.
Предлагаем пройти революционный курс по гитаре.
Подарок от PrimaNota.Ru, забирай!