PrimaNota.ru - самый крупный в мире бесплатный архив песенных текстов, аккордов, табулатур и нот


Plus 44 - I Am One - таба, бас-таба, видео

Регистрация Запомнить меня
Войти через:  Facebook Google Twitter Vk Yandex Mail.ru

Plus 44 - I Am One - таба, бас-таба, видео

Печатать
Просмотров: 128
Уроки эстрадного вокала в Санкт-Петербурге
I am ONe                       (+44)
this is the smashing pumpkins cover its on theyre myspace if u wanna listen to it

Intro:

Guitars 1 + 2
|------------------0~---|
|------0~--------0------|
|----3---------3--------| 2 times
|--4---------4----------|
|--4---------4----------|
|--2---------0----------|

rake over the chords

and then

Guitar 2
|------------------------------------------------|
|--7-----7---7---7---2-2-7-----7---7---7---2-4---|
|--6-----6---6---6---2-2-6-----6---6---6---2-4---| 2 times
|--4-----4---4---4---2-2-4-----4---4---4---2-4---|
|--------------------0-0-------------------0-2---|
|----0-0---0---0---0-------0-0---0---0---0-------|


   A   Bm          A    Bm
|---------------|------------|
|--2---4---(3)--|--10---12---|
|--2---4-or-4---|--9----11---|
|--2---4----4---|--7----9----|
|--0---2----2---|------------|
|---------------|------------|

Guitar 1 comes in with the Lead Solo the second time

Guitar 1
|---------------------------------------------------------------|
|---------------------------------------------------------------|
|--4gb6~~----------------------------2h4-4b6r4p2-4b6r4p2--------|
|--4gb6~~-2---4~-----2~----------2h4---------------------4~~~---|
|-----------4----4-2---------2h4--------------------------------|
|------------------------2h5------------------------------------|


Verse:

Guitar 1
|--------------------------------------------------|
|--------------------------------------------------|
|--11----11--11--11------11----11--11--11----------| 4 times
|--11----11--11?-11--9~~-11----11--11--11--9/11~---|
|--9-----9---9---9-------9-----9---9---9-----------|
|----0-0---0---0---0-------0-0---0---0---0---------|

Guitar 2
|------------------------------------------------|
|--7-----7---7---7---2-2-7-----7---7---7---2-4---|
|--6-----6---6---6---2-2-6-----6---6---6---2-4---| 4 times
|--4-----4---4---4---2-2-4-----4---4---4---2-4---|
|--------------------0-0-------------------0-2---|
|----0-0---0---0---0-------0-0---0---0---0-------|

"I am one as you are three?"


Bridge:

both guitars          4x Fills: 1st,3rd;  2nd,4th time
|------------------------------|-------|---------|
|------------------------------|-------|---------|
|------------------------------|-11-11-|---------|
|------------------------------|-------|---------|
|------------------------------|-9--9--|-12-14---|
|--12-0-0-0-12-0-0-12-0-0-12-0-|-------|-10-12---|

"Am I as I seem?"


Fill:

Guitars 1 + 2
|------------------0~---|
|------0~--------0------|
|----3---------3--------| 2 times
|--4---------4----------|
|--4---------4----------|
|--2---------0----------|

"I?m down?"


Solo:

Guitar 2 plays Verse Riff once

Guitar 1
|-------------------------------------------------------------------------------|
|-------------------------------------------------------------------------------|
|--16b18~-18r16~?14h16p1413~---------------------------------------------------|
|------------------------------16gb18~-16h18p1614~-----------------*16*b~~~---|
|--------------------------------------------------14-12----12------------------|
|--------------------------------------------------------12----12~--------------|


Verse: same

Bridge: same

Chorus:

Guitars 1 + 2
|------------------------------------------------|
|------------------------------------------------|
|--------------------2-2-------------------2-4---| 4 times
|--4-----4---4---4---2-2-4-----4---4---4---2-4---|
|--4-----4---4---4---0-0-4-----4---4---4---0-2---|
|--2-0-0-2-0-2-0-2-0-----2-0-0-2-0-2-0-2-0-------|

                  "See you?"            "I am one"


Interlude:

Guitar 1
|-------------------------------------------------------------------|
|-------------------------------------------------------------------|
|--2-----------------2-----2-------------2--------------------------|
|--2-----------------2-----2-------------2--------------------------|
|--0-----------------0-----0-------------0--------------------------|
|-------------------------------------------------------------------|

Guitar 2
|-------------------------------------------------------------------|
|-----3-5-5-7-5-7-5-3---------3-5-3-5-5-7-5-7-5-3-5-3-5-7-5-7-8~/---|
|--2~-----------------2~---2~---------------------------------------|
|-------------------------------------------------------------------|
|-------------------------------------------------------------------|
|-------------------------------------------------------------------| 


Guitar Solo: i dont really kno about the solo i think its right tho

Guitar 1
|-----------------------------------------------------------------|
|--17b19~-19r17~-14h17p14-----------------------------------------|
|-------------------------16b18~-14-14~~-----14-16b18r16p14-------|
|----------------------------------------/16----------------16~---|
|-----------------------------------------------------------------|
|-----------------------------------------------------------------|

Guitar 1
|-----------------------17b19r17~~--19b21~~-------21b24~~~--------|
|--18p16p14-17b19r17p14---------------------19p17-----------------|
|-----------------------------------------------------------------|
|---------------------------------------------------------\\---|
|---------------------------------------------------------\\---|
|---------------------------------------------------------\\---|

Guitar 1
|--------------------------------------------------------|
|--14h17p14----------------------------------------------|
|-----------16b18-16b18r16~-13h14p1311h13p11------------|
|--------------------------------------------------------|
|---------------------------------------------12b16~~~---|
|--------------------------------------------------------|

Guitar 1
|---12-10-9-7-5-4-2-0----------------------|
|---------------------3-2-0----------------|
|---------------------------2-1------------|
|-------------------------------4-2--------|
|-----------------------------------4------|
|-------------------------------------2~---|


Guitar Solo:

Guitar 1
|----------------------------16r14~-16p14h17b19~-17-19-17-19r17-19r17---|
|--14-----------------17b19~--------------------------------------------|
|--16b18~~~--14h16p14---------------------------------------------------|
|-----------------------------------------------------------------------|
|-----------------------------------------------------------------------|
|-----------------------------------------------------------------------|

|--19r17-14----------------------------------------------------------------|
|-----------17-17b19~------------------------------------------------------|
|---------------------16h18p1614~-18r16gb18p14~---------------------------|
|------------------------------------------------14h16p14----16~-----------|
|---------------------------------------------------------16-----14gb16~---|
|--------------------------------------------------------------------------|

|----------|
|----------|
|----------|
|----------|
|----------|
|--14\---|

Guitar 2 
|------------------------------------------------|
|--7-----7---7---7---2-2-7-----7---7---7---2-4---|
|--6-----6---6---6---2-2-6-----6---6---6---2-4---| 4 times
|--4-----4---4---4---2-2-4-----4---4---4---2-4---|
|--------------------0-0-------------------0-2---|
|----0-0---0---0---0-------0-0---0---0---0-------|


Chorus:

Guitar 1+2
|------------------------------------------------|
|------------------------------------------------|
|--------------------2-2-------------------2-4---| 4 ? 8 times
|--4-----4---4---4---2-2-4-----4---4---4---2-4---|
|--4-----4---4---4---0-0-4-----4---4---4---0-2---|
|--2-0-0-2-0-2-0-2-0-----2-0-0-2-0-2-0-2-0-------|

                  "See you?"            "I am one"


End on:

Guitar 1+2
|---------------------|
|---------------------|
|---------------------| 
|--4~~~(6)~--4-4\----|
|--4~~~(6)~--4-4\----|
|--2~~~(4)~--2-2\----|

Добавлено: 20.09.2013
Вам также может быть интересно:
Другие материалы по этой песне:
  • Аккорды и текст

Страница создана 20.09.2013
http://primanota.ru/plus-44/i-am-one-chords.htm
Привет, Гость.
Предлагаем пройти революционный курс по гитаре.
Подарок от PrimaNota.Ru, забирай!