PrimaNota.ru - самый крупный в мире бесплатный архив песенных текстов, аккордов, табулатур и нот


Plumtree - Scott Pilgrim - таба, видео

Регистрация Запомнить меня
Войти через:  Facebook Google Twitter Vk Yandex Mail.ru

Plumtree - Scott Pilgrim - таба, видео

Печатать
Просмотров: 601
Авторы: Carla Gillis, Catriona Sturton, Lynette Gillis, Amanda Braden

-------------------------------------------------------------------------------
                             SCOTT PILGRIM - Plumtree
-------------------------------------------------------------------------------
http://www.plumtree.ca/

Tuning: Standard

Riff 1: (x4)
e|--------------------------------------------------|
B|--------------------------------------------------|
G|-9------------------------------------------------|
D|-9----------------7--7-------------------------2--|
A|-7-----------5----7--7-----------------2-------2--|
E|-0-----5h7--------5--5------0-----2h4-----2----0--|


Verse: (x4)
e|------------------------------|
B|------------------------------|
G|--9---9-----------------------|
D|--9---9---7-7------7-7-7---2--|
A|--7---7---7-7------7-7-7---2--|
E|--0---0---5-5------5-5-5---0--|


Riff 2:
e|---------------------------------------------------------------------------|
B|------------------------------------------------------------------------17-|
G|--16------18--18—---16h18-18--16----------------16-------18---18---16h18---|
D|------18-----------------------------16---18---------18--------------------|
A|---------------------------------------------------------------------------|
E|---------------------------------------------------------------------------|

e|---------------------------------------------------------------------------|
B|-------17------------------------------------------------------------------|
G|--16h18---16h18--16-----18---16-----16h18--16------------------------------|
D|----------------------18---------18------------16--18----------------------|
A|---------------------------------------------------------------------------|
E|---------------------------------------------------------------------------|

e|--------------------------------|
B|--------------------------------|
G|---16------18--18—18b20p16------|
D|-------18-------------------18--|
A|--------------------------------|
E|--------------------------------|

Verse (x4)

Bridge: (There's also a second guitar picking something during this part, but I didn't tab 
that out.)

e|----------------------------------------|
B|----------------------------------------|
G|----------4-4-4-4--9-9-9-9--------------|
D|-4-4-4-4--4-4-4-4--9-9-9-9---7-7-7-7----| (x2)
A|-4-4-4-4--2-2-2-2--7-7-7-7---7-7-7-7----|
E|-2-2-2-2-----------0-0-0-0---5-5-5-5----|

e|-----------------------------------------------------------------|
B|-----------------------------------------------------------------|
G|----------4-4-4-4--9-9-9-9------------------------------4-4-4-4--|
D|-4-4-4-4--4-4-4-4--9-9-9-9---7-7-7-7-7-7-7-7---4-4-4-4--4-4-4-4--|
A|-4-4-4-4--2-2-2-2--7-7-7-7---7-7-7-7-7-7-7-7---4-4-4-4--2-2-2-2--|
E|-2-2-2-2-----------0-0-0-0---5-5-5-5-5-5-5-5---2-2-2-2-----------|

Riff 1 (x4)

Verse (x4)

Riff 3:
e|---------------------------------------------------------------------------|
B|------------------------------------------------------------------------17-|
G|--16------18--18—---16h18-18--16----------------16-------18---18---16h18---|
D|------18-----------------------------16---18---------18--------------------|
A|---------------------------------------------------------------------------|
E|---------------------------------------------------------------------------|

e|---------------------------------------------------------------------------|
B|-------17------17------17------17------------------------------------------|
G|--16h18---16h18---16h18---16h18----16h18-16--16---16h18-16--16-------------|
D|-------------------------------------------18-------------18---------------|
A|---------------------------------------------------------------------------|
E|---------------------------------------------------------------------------|

e|----------------------------------19-----19-----19-----|
B|------------------------------------17-17--17-17--17---|
G|--16h18-16--16---16h18--16--16-------------------------|
D|----------18--------------18---------------------------|
A|-------------------------------------------------------|
E|-------------------------------------------------------|

Bridge

And then:
e|--------------------------------------------------------------------|
B|--------------------------------------------------------------------|
G|--9----------------------------------9----9-------9-9-------9-9-9-9-|
D|--9--9-9--11-11--9-9--7-7--7-7--9-9--9-9--9--9-9--9-9--9-9--9-9-9-9-|
A|--7--9-9--11-11--9-9--7-7--7-7--9-9--7-9--7--9-9--7-7--9-9--7-7-7-7-|
E|--0--7-7--9--9---7-7--5-5--5-5--7-7--0-7--0--7-7--0-0--7-7--0-0-0-0-|

e|------------|
b|------------|
G|------------|
D|----7---7-6-|
A|----7---7-6-|
E|----5---5-4-|
Riff 1 (4x)
THE END!
Добавлено: 07.03.2012
Другие материалы по этой песне:

Страница создана 07.03.2012
http://primanota.ru/plumtree/scott-pilgrim-chords.htm
Привет, Гость.
Предлагаем пройти революционный курс по гитаре.
Подарок от PrimaNota.Ru, забирай!