PrimaNota.ru - самый крупный в мире бесплатный архив песенных текстов, аккордов, табулатур и нот


Plumtree - Go - таба, бас-таба, видео

Регистрация Запомнить меня
Войти через:  Facebook Google Twitter Vk Yandex Mail.ru

Plumtree - Go - таба, бас-таба, видео

Печатать
Просмотров: 194
My first tab, I think it's right but the highest part of the solo might be a touch off. Enjoy.

Intro:

e-----------------|----------------|                    
B-----------------|----------------|
G-4-4-4--5-5-5----|-7-7-7-7-7------| x3 then
D--5-5----5-5-----|--7-7-7-7-7-----|
A-----------------|----------------|
E-----------------|----------------|

  G      C          D
e-----------------|-5--------------|                    
B-----------------|-7--------------|
G-4-4-4--5-5-5----|-7--------------|
D--5-5----5-5-----|-7--------------|
A-----------------|-5--------------|
E-----------------|-X--------------|


1.. 2.. 3.. etc. is a G barre

e--3-xxxx-3-xx-3-3-xx---|
B--3-xxxx-3-xx-3-3-xx---|
G--4-xxxx-4-xx-4-4-xx---| x8
D--5-xxxx-5-xx-5-5-xx---|
A--5-xxxx-5-xx-5-5-xx---|
E--3-xxxx-3-xx-3-3-xx---|


Whoaaaa....

    G   Bm  C   D
e---3---2---3---5----|
B---3---3---5---7----|
G---4---4---5---7----|
D---5---4---5---7----|
A---5---2---3---5----|
E---3---x---x---x----|


Solo:

e---------------------------------------------------------|
B-----------------------5---------------------------------|
G-----5-7-----7-9-----5---7-5------------5-7------7-9-----|
D-5/7-----7/9-----7-----------7------5/7------7/9-----5---|
A---------------------------------------------------------|
E---------------------------------------------------------|

e---------------------------------------------------------|
B-----------------------55--------------------------------|
G-----5-7-----7-9-----5---7p5------------5-7------7-9-----|
D-5/7-----7/9-----7-----------7------5--------7/9-----5---|
A---------------------------------------------------------|
E---------------------------------------------------------|

e---------------------------------------------------------|
B---------------------------------------------------------|
G-/9---9-9p7------9-9p7-----/9--9-9p7----9-7----7---------| x3
D------------9----------9-------------9-------9-----------|
A---------------------------------------------------------|
E---------------------------------------------------------|

e---------------------------------------------------------|
B---------------------------------------------------------|
G-/9---9-9p7------9-9p7-----/9--9-9p7----/9-7-------------| 
D------------9----------9-------------9-------------------|
A---------------------------------------------------------|
E---------------------------------------------------------|

e---------------------------------------------------------|
B-----8-10-10^12-10^12-10p8-------------------------------|
G-7h9---------------------------9-7-9-7-7-7\--------------|
D---------------------------------------------------------|
A---------------------------------------------------------|
E---------------------------------------------------------|

e--------------------10----10----10-10-10\----------------|
B-----------8-10-10b----10----10-10-10-10\----------------|
G----/7-7h9-----------------------------------------------|
D---------------------------------------------------------|
A---------------------------------------------------------|
E---------------------------------------------------------|

e---------------------------------------------------------|
B--------------10-10-10p8---------------------10-8--------|
G---9-9-9p7---------------9-----9-9-9p7------------9-7----|
D-----------9---------------------------9-----------------|
A---------------------------------------------------------|
E---------------------------------------------------------|

e---------------------------------------------------------|
B--------------10-10-10p8---------------------------------|
G---9-9-9p7---------------9-----9-7-----------------------|
D-----------9-----------------------9-7-9-5~~~~~~~~~~~~~~~|
A---------------------------------------------------------|
E---------------------------------------------------------|

And end on the G barre

Добавлено: 11.04.2012
Другие материалы по этой песне:
  • Аккорды и текст

Страница создана 11.04.2012
http://primanota.ru/plumtree/go-chords.htm
Привет, Гость.
Предлагаем пройти революционный курс по гитаре.
Подарок от PrimaNota.Ru, забирай!