PrimaNota.ru - самый крупный в мире бесплатный архив песенных текстов, аккордов, табулатур и нот


Plume Latraverse - Saoul Comme Une Botte - таба, видео

Регистрация Запомнить меня
Войти через:  Facebook Google Twitter Vk Yandex Mail.ru

Plume Latraverse - Saoul Comme Une Botte - таба, видео

Печатать
Просмотров: 101
Уроки эстрадного вокала в Санкт-Петербурге
##########################################
Chanson : Saoul comme une botte
Artiste : Latraverse, Plume
Auteur  : Partielle
###########################################


Intro :

----------------------------------------|
----------------------------------------|
---0-----0---0-------2-----0---0-----0--|
-----0h2-------0-------0h2--------------|
-3---------2-------0-------------0h2----|
-----------------------------3----------|
 C         CSUS2/B Am        G


----------------------------------------|
---1-----1-------1---1-----1------------|
-------------0-----------------0-----0--|
-----0h2-------0-------0h2--------------|
-3---------2-------0-------------0h2----|
-----------------------------3----------|
C         CSUS2/B Am        G


----------------------------------------|
---1-----1---1---1---1-----1---0-----0--|
----------------------------------------|
-----0h2-------0-------0h2--------------|
-3---------2-------0-------------0h2----|
-----------------------------3----------|
C         CSUS2/B Am        G
Saoul                          comme une

----------------------------------------|
---1-----1-------1---1-----1---0-----0--|
-------------0--------------------------|
-----0h2-------0-------0h2--------------|
-3---------2-------0-------------0h2----|
-----------------------------3----------|
C         CSUS2/B Am        G
botte

----------------------------------------|
---1-----1---1---1---1-----1---0-----0--|
----------------------------------------|
-----0h2-------0-------0h2--------------|
-3---------2-------0-------------0h2----|
-----------------------------3----------|
C         CSUS2/B Am        G
      As__sis  au boc  pas loin d'la

-------------------------------3-3---3-|
---1-----1-------1---1-----1---0-0---0-|
-------------0-----------------0-0---0-|
-----0h2-------0-------0h2-----0-0---0-|
-3---------2-------0-----------2-2---2-|
-----------------------------3---------|
C         CSUS2/B Am         G
porte

F                              G
Je r'gard' danser les Black Label
                 E7/G#(4X0430)
Sur une' vieill' toune d'Eddy Mitchell

(Guitare 1)
Am(X02210), Am/G#(4X2210), Am/G(3X2210), Am/F#(2X2210)

(Guitare 2)
Am(XX7555), Am/G#(XX6555), Am/G(XX5555), Am/F#(XX4555)


F                                   G
Curieux j'y pensais justement mêm' pas

(solo)
-----------------------------------8-10-10/12-12\10-8------|
-----------------8---8--8\4---8/10--------------------10-8-|
-------5---5-7/9---9----9\5--------------------------------|
---5-7---7-------------------------------------------------|
-7---------------------------------------------------------|
-----------------------------------------------------------|
C,    CSUS2/B,   Am,          G         
               CSUS2/B,


------------------|
-5-4-3---3-5--3-5-|
-------5----------|
------------------|
------------------|
------------------|
Am,      G   C, CSUS2/B, Am, G         C, CSUS2/B, Am, G
             Mou             comme une crotte

C,     CSUS2/B, Am,       G     C, 
Am, G
Chaud comme un spot dans mes culottes
F                                     G
Qui éclaire le stage où j'm'en vas jouer
               E/G#               Am, Am/G#, Am/G, Am/F#
J'ai une demi-heure pour dégriser
F                                   G
Curieux j'y pensais justement même pu

Am                               G
De charmants étudiants pleins d'pep hep! hep!
Am        Gadd9/B(X20233) F
M'ont invité    à leur Cégep
Am                             G
Pour aller jouer d'la belle musique zi-zique
Am              Gadd9/B
Pas pour faire mon grand
      F(XX3211), F/E(XX2211), 
G
alcoolique                                               hic hic

---------------------------------------------|
---------8----------------------------8------|
-----7/9--------10-9-10-9----9----------10-9-|
--------------------------10---10-7----------|
---------------------------------------------|
---------------------------------------------|
C, CSUS2/B, Am, G, C, 
Am, G   C, CSUS2/B, Am, G
                                      Fou
           C, CSUS2/B, Am, G,
comme une plotte
C, CSUS2/B,      Am,        G,       
CSUS2/B, Am, G
Une plotte qui s'frott s'in cadr' de porte
F                               G
Qui flotte à drette qui flush à gauche
                    E/G#           Am, Am/G#, Am/G, 
F#
J'me pitch' su'l' stage avec mon roach
F                           G
Curieux j'y pensais pus pantoute

C, CSUS2/B, Am, G          C, 
Am, G
Doux            doux doux doux
C,    CSUS2/B,  Am, G          C, 
Am, G
Doux doux doux doux doux doux doux
F                             G
C'est une belle crowd icitte à soir
            E/G#                   Am
Chus ben content d'être v'nu vous voir
                 D7                  F
J'vous r'mercie ben pour la grosse bière
            Ab(466544)     Cmaj7(332000)
J'ai eu ben du fun à Jonquière

###########################################
Добавлено: 29.06.2012
Другие материалы по этой песне:
  • Аккорды и текст

Страница создана 29.06.2012
http://primanota.ru/plume-latraverse/saoul-comme-une-botte-chords.htm
Привет, Гость.
Предлагаем пройти революционный курс по гитаре.
Подарок от PrimaNota.Ru, забирай!