PrimaNota.ru - самый крупный в мире бесплатный архив песенных текстов, аккордов, табулатур и нот


The Plumcocks - Pocket Lint - таба, видео

Регистрация Запомнить меня
Войти через:  Facebook Google Twitter Vk Yandex Mail.ru

The Plumcocks - Pocket Lint - таба, видео

Печатать
Просмотров: 129
Tabbed by: Lugnut7


Artist: Pocket Lint
Album: The Plumcocks Demo
Song: Pocket Lint

Guitar 1 Tuning: Standard
Guitar 2 Tuning: Standard


Intro Riff:

Guitar 1:
e|---------------------------------------------------------------|
B|---------------------------------------------------------------|
G|---------------------------------------------------------------|
D|-----11-----11-11-----6-----6--6------4-----4-----4----4----4--|
A|-9-9----9-9---9----4-4--4-4--4----2-2---2-2---2-2---2-2--2-2--2|
E|---------------------------------------------------------------|

e|---------------------------------------------------------------|
B|---------------------------------------------------------------|
G|------------------------------------------------4--------------|
D|-----11-----11-11-----8-----8--8------4-----4---4-(x8)---------|
A|-9-9----9-9---9----6-6--6-6--6----2-2---2-2-----2--------------|
E|---------------------------------------------------------------|

Signature Progression:

Guitar 1:
e|---------------------------------------------------------------|
B|---------------------------------------------------------------|
G|-6--6------10-10------10/11-------11-11------------------------|
D|-x--x-(6x)-x--x--(6x)--x/-x--(6x)--x--x--(6x)------------------|
A|-4--4------8--8--------8/-9--------9--9------------------------|
E|---------------------------------------------------------------|

Guitar 2:
e|---------------------------------------------------------------|
B|---------------------------------------------------------------|
G|-11-11------6--6------4--4------4--4---------------------------|
D|-11-11-(6x)-6--6-(6x)-4--4-(6x)-4--4-(6x)----------------------|
A|-9---9------4--4------2--2------2--2---------------------------|
E|---------------------------------------------------------------|

Guitar 1:
e|---------------------------------------------------------------|
B|---------------------------------------------------------------|
G|-11-11------10-10--------8--8--------8--8----------------------|
D|-x--x--(6x)--x--x--(6x)--x--x--(6x)--x--x--(6x)----------------|
A|-9--9--------8--8--------6--6--------6--6----------------------|
E|---------------------------------------------------------------|

Guitar 2:
e|---------------------------------------------------------------|
B|---------------------------------------------------------------|
G|-11-11------6--6------4--4------4--4---------------------------|
D|-11-11-(6x)-6--6-(6x)-4--4-(6x)-4--4-(6x)----------------------|
A|-9---9------4--4------2--2------2--2---------------------------|
E|---------------------------------------------------------------|

Verse:

Guitar 1:
e|---------------------------------------------------------------|
B|---------------------------------------------------------------|
G|-11------------------------------------------------------------|
D|-11--(Let Ring)------------------------------------------------|
A|-9-------------------------------------------------------------|
E|---------------------------------------------------------------|

Guitar 2:
e|---------------------------------------------------------------|
B|---------------------------------------------------------------|
G|-11---------6---------4---------8--------6---------------------|
D|-11--(8x)---6--(8x)---4--(8x)---8--(4x)--6--(4x)---------------|
A|-9----------4---------2---------6--------4---------------------|
E|---------------------------------------------------------------|

(Play Twice)

Pre-Chorus:

Guitar 1:
e|---------------------------------------------------------------|
B|---------------------------------------------------------------|
G|-4------------------6------------------------------------------|
D|-4--(Let Ring)------6--(Let Ring)------------------------------|
A|-2------------------4------------------------------------------|
E|---------------------------------------------------------------|

Guitar 2:
e|---------------------------------------------------------------|
B|---------------------------------------------------------------|
G|-4------------------6------------------------------------------|
D|-4--(16x)-----------6--(16x)-----------------------------------|
A|-2------------------4------------------------------------------|
E|---------------------------------------------------------------|

Chorus:

Both Guitars:
e|---------------------------------------------------------------|
B|-11-11--------------6---------------4--------------------------|
G|-9--9-(Don't Ring)--6-(Don't Ring)--4-(16x)--------------------|
D|-9--9---------------4---------------2--------------------------|
A|---------------------------------------------------------------|
E|---------------------------------------------------------------|


e|---------------------------------------------------------------|
B|---------------------------------------------------------------|
G|-11-11------6--6------4--4------4--4---------------------------|
D|-11-11-(6x)-6--6-(6x)-4--4-(6x)-4--4-(6x)----------------------|
A|-9---9------4--4------2--2------2--2---------------------------|
E|---------------------------------------------------------------|


~Play Verse Again.

~Play Chorus Again.

~Play Signature Riff.

~Play Chorus Again (But Let Notes Ring)

Outro:

Guitar 1:
e|---------------------------------------------------------------|
B|---------------------------------------------------------------|
G|-11------------------6--------------------4--------------------|
D|-11--(Let Ring)------6--(Let Ring)--------4--(Let Ring)--------|
A|-9-------------------4--------------------2--------------------|
E|---------------------------------------------------------------|

Guitar 2:
e|---------------------------------------------------------------|
B|---------------------------------------------------------------|
G|-11------------------11------------------11--------------------|
D|-x--(Let Ring)--------x--(Let Ring)-------x--(Let Ring)--------|
A|-9--------------------9-------------------9--------------------|
E|---------------------------------------------------------------|

| /  slide up
| \  slide down
| h  hammer-on
| p  pull-off
| ~  vibrato
| +  harmonic
| x  Mute note

Lyrics:

Waking up past noon is my specialty
Most People Dont wanna be seen next to me
Got kicked out of college, drinking too much Vlad
I'm 21 and still living with mom and dad

Because, Because

I got no job
Live like a slob
I'm planning on which bank to rob, and I'm 
sitting here with nothing but my Pocket Lint

Bank account's dry and all my moneys spent
Havent paid my bills in god knows when
Gotta ride my board, cause my car broke down
Now I'm the laughing stock of my hometown

Because, Because

I got no job
Live like a slob
I'm planning on which bank to rob, and I'm 
sitting here with nothing but my Pocket Lint

(So I got to-)

Get a job
Not be a slob
Stop planning on which bank to rob (Stop jerking off dudes in the parking lot) and
Stop sitting around with my Pocket Lint
Добавлено: 14.08.2015
Другие материалы по этой песне:
  • Аккорды и текст

Страница создана 14.08.2015
http://primanota.ru/plumcocks/pocket-lint-chords.htm
Привет, Гость.
Предлагаем пройти революционный курс по гитаре.
Подарок от PrimaNota.Ru, забирай!