PrimaNota.ru - самый крупный в мире бесплатный архив песенных текстов, аккордов, табулатур и нот


Plini - Tarred And Feathered - таба, видео

Регистрация Запомнить меня
Войти через:  Facebook Google Twitter Vk Yandex Mail.ru

Plini - Tarred And Feathered - таба, видео

Печатать
Просмотров: 132
C#, G#, D#, G#, C, D#.

D#|-------------------------------|
 C|---7*--------------7*----------|
G#|---7*-------8*-----7*----------|
D#|-------5----8*--7------9----7*-|
G#|-----------------------9----7*-|
C#|-4-----------------------------|

D#|---------------------------------|
 C|---7*-----7*-----7*-----------7*-|
G#|---7*-----7*-----7*--------7*----|
D#|--------------4------5--7*-------|
G#|-0-----0-------------------------|
C#|-------0-------------------------|

D#|-------------------------------|
 C|---7*--------------7*----------|
G#|---7*-------8*-----7*----------|
D#|-------5----8*--7------9----7*-|
G#|-----------------------9----7*-|
C#|-4-----------------------------|

D#|---------------------------|
 C|---7*-----7*-----7*--------|
G#|---7*-----7*-----7*-----7*-|
D#|--------------4------5--7*-|
G#|-0-----0-------------------|
C#|-------0-------------------|

D#|---7p0------------------7p0------------------7p0-----------------12p0------------------|
 C|-------7p0------------------7p0------------------7p0------------------12p0-------------|
G#|-----------7p0------------------7p0------------------7p0-------------------12p0--------|
D#|---------------7p0-0----------------7p0-0----------------7p0-0------------------12p0-0-| x2
G#|-4-------------------7---------------------7-------------------0-----------------------|
C#|-4-------------------6---------------------7-------------------0-----------------------|

D#|---------------------------------7*-----------------------------5*-|
 C|-------------------12*----12*-----------------------7*----7*-------|
G#|------------12*--------7*-----7*--------------7*-------5*----5*----|
D#|-----12*--------7*----------------------7*-------5*----------------| x2
G#|-12*-----7*--------------------------------5*----------------------|
C#|-------------------------------------7*----------------------------|

D#|----------------------------------------------------------------|
 C|-------------------------------------------7*-------------------|
G#|----------------7-7---------------------------7*----------------|
D#|------------2/5-----------0----------------------7*-------------| 1,3
G#|------4h5-4-----------4h7--------4h5-4--7*--------------4-7p5p4-|
C#|-0--0---------------0-------0--0--------------------4h7---------|

D#|-------------------------------------------------------------------|
 C|-------------------------------------------------------------------|
G#|----------------7-7------------------------------------------------|
D#|------------2/5---------------------------------------------xxxxxx-| 2
G#|------4h5-4-------------4-7p5p4-----4------4h5-4-2/7--------xxxxxx-|
C#|-0--0---------------4h7---------4h7---0--0------------4/7-7-xxxxxx-|

D#|---------------------------------------------------------------------|
 C|---------------------------------------------------------------------|
G#|----------------7-7---------------------------5/7--------------------|
D#|------------2/5-------------2p0-------------------4/7-7-11-9-9\7-7-9-|
G#|------4h5-4---------------4-----5-4-----4h5-4-----4/7-7-11-9-9\7-7-9-|
C#|-0--0---------------0-4h7-----------7-4------------------------------|

D#|---7p0------------------7p0------------------7p0-----------------12p0------------------|
 C|-------7p0------------------7p0------------------7p0------------------12p0-------------|
G#|-----------7p0------------------7p0------------------7p0-------------------12p0--------|
D#|---------------7p0-0----------------7p0-0----------------7p0-0------------------12p0-0-| x2
G#|-4-------------------7---------------------7-------------------0-----------------------|
C#|-4-------------------6---------------------7-------------------0-----------------------|

D#|-------0---------------0-----------|
 C|-----0---0-----------0---0---------|
G#|---0-------0-------0-------0-------|
D#|-4-----------5-2-4-----------9-5-7-| x2  1,3
G#|-----------------------------------|
C#|-----------------------------------|


D#|-------0-------------0-------0--------------------0---------0---------0---------0---------0-----|
 C|-----0---0---------0-------0---0----------------0---0-----0---0-----0---0-----0---0-----0---0---|
G#|----------------------------------------0-----------------------0---------0---------0---------0-|
D#|---0-------0-------------0------------0-------0-------0-----------------------------------------|  2,4
G#|-8-----------9-4BD-----7---------4-6------6-4-----------5---------3---------5---------3---------|
C#|------------------------------------------------------------------------------------------------|

D#|-- x4 -|-- x4 -|-- x4 -|-- x4 -|
 C|-------|-------|-------|-------|
G#|-------|-------|-------|-------|
D#|-4-----|-5-----|-7-----|-5-----|
G#|---4---|---4---|---4---|---4---|
C#|-----4-|-----4-|-----4-|-----4-|

D#|-- x4 -|-- x4 -|-- x4 -|-- x4 -|
 C|-------|-------|-------|-------|
G#|-------|-------|-------|-------|
D#|-5-----|-3-----|-7-----|-8-----|
G#|---3---|---3---|---3---|---3---|
C#|-----3-|-----3-|-----3-|-----3-|

D#|-- x4 --|-- x4 -|-- x4 --|-- x4 --|
 C|--------|-------|--------|--------|
G#|--------|-------|--------|--------|
D#|-11-----|-9-----|-11-----|-12-----|
G#|----7---|---7---|----7---|----7---|
C#|------7-|-----7-|------7-|------7-|

D#|-- x4 --|-- x4 -|-- x4 -|-------------------------------|
 C|--------|-------|-------|-------------------------------|
G#|--------|-------|-------|-------------------------------|
D#|-12-----|-9-----|-7-----|-4-4h5p4---4-------------------|
G#|----0---|---0---|---0---|---------7---7-5-4h5p4-2-4-0-2-|
C#|------0-|-----0-|-----0-|-------------------------------|

D#|-----------------------------|
 C|--------------------7*-------|
G#|----7*--------------7*-------|
D#|-4--7*-------7*--7-----9--9*-| x4
G#|--------5----7*-----------9*-|
C#|--------7--------------------|

D#|---7p0------------------7p0------------------7p0-----------------12p0------------------|
 C|-------7p0------------------7p0------------------7p0------------------12p0-------------|
G#|-----------7p0------------------7p0------------------7p0-------------------12p0--------|
D#|---------------7p0-0----------------7p0-0----------------7p0-0------------------12p0-0-| x4
G#|-4-------------------7---------------------7-------------------0-----------------------|
C#|-4-------------------6---------------------7-------------------0-----------------------|

D#|---------------------------------7*-----------------------------5*-|
 C|-------------------12*----12*-----------------------7*----7*-------|
G#|------------12*--------7*-----7*--------------7*-------5*----5*----|
D#|-----12*--------7*----------------------7*-------5*----------------| x2
G#|-12*-----7*--------------------------------5*----------------------|
C#|-------------------------------------7*----------------------------|
Добавлено: 24.12.2015
Вам также может быть интересно:
Другие материалы по этой песне:
  • Аккорды и текст

Страница создана 24.12.2015
http://primanota.ru/plini/tarred-and-feathered-chords.htm
Привет, Гость.
Предлагаем пройти революционный курс по гитаре.
Подарок от PrimaNota.Ru, забирай!