PrimaNota.ru - самый крупный в мире бесплатный архив песенных текстов, аккордов, табулатур и нот


Plini - Heart - таба, видео

Регистрация Запомнить меня
Войти через:  Facebook Google Twitter Vk Yandex Mail.ru

Plini - Heart - таба, видео

Печатать
Просмотров: 87
I figured I'd get the intro down because I love the sound of it and in hopes someone 
will finish the rest of the song

edited: I somehow completely had the frets moved up but I have corrected them. Here is a video example of
how it should look and sound(note: I'm capoed on the first fret):

http://youtu.be/iitUKjkXUlI
 
Standard Tuning

Intro guitar

E|---------------------------------------------------------------------------------------|
B|-----------------------0---------------------------------------------0-----------------|
G|-----------------0----------------------------------0----------------------------0-----|
D|-----------2----------------------------------4----------------------------4-----------|
A|-----3----------------------------------5----------------------5-----------------------|
E|----------------------------------7----------------------------------------------------|


Lead guitar that comes in(not sure if it's supposed to be the 8th fret on the B string because hitting 
the 5th sounds good too, someone should let me know)

E|-------------------------7---------------------------------------------------------|
B|-------------------8--------------------------------5----3----0--------------------|
G|--------------4---------------------------------4------------------2----0----------|
D|---------5---------------------------------5---------------------------------4-----|
A|----7---------------------------------7--------------------------------------------|
E|-----------------------------------------------------------------------------------|

Started on the first solo that begins at 1:02, it sounds like it works so far:

E|--------------------------------------------------------------------------------------
B|--------------------------------------------------------------------------------------
G|--------------------------------------------------------------------------------------
D|-------------------5---7---5---7/9\0------b9--------7b5---5h7-----5/7---5/7-----------
A|-----------7---9-------------------------------10-------------7---5/7---5/7-----------
E|---5---7------------------------------------------------------------------------------


E|--------------------------------------------------------------------------------------------
B|--------------------------------------------------------------------------------------------
G|---------------------------------------------------------------------7/9/11---9\7\6---------
D|-----------3h5---5b-5\3-------------------------------------7---9/12------------------------
A|---7\5\3---------------------------------------7---9---10-----------------------------------
E|---------------------------0h2---0h2---5---7------------------------------------------------

E|---10-------------------------------------------
B|--------9b8\6---6h8---8b9r---8\6---5/7\5--------
G|------------------------------------------------
D|------------------------------------------------
A|------------------------------------------------
E|------------------------------------------------
Добавлено: 27.06.2016
Вам также может быть интересно:
Другие материалы по этой песне:
  • Аккорды и текст

Страница создана 27.06.2016
http://primanota.ru/plini/heart-chords.htm
Привет, Гость.
Предлагаем пройти революционный курс по гитаре.
Подарок от PrimaNota.Ru, забирай!