PrimaNota.ru - самый крупный в мире бесплатный архив песенных текстов, аккордов, табулатур и нот


Pleymo - World - текст песни, таба, видео

Регистрация Запомнить меня
Войти через:  Facebook Google Twitter Vk Yandex Mail.ru

Pleymo - World - текст песни, таба, видео

Печатать
Просмотров: 111
-----------------------------------------------------------------------------
                             World - Pleymo
-----------------------------------------------------------------------------

Tuning:Drop B(B F# B E G# C#)

Intro riff:
|-------------------------------10----|
|-------12-8-10-8----------12-8----10-|
|-9-9-9--------------9-9-9------------|
|-------------------------------------|
|-------------------------------------|
|-------------------------------------|

Main riff:
|----------------------------------------|
|----------------------------------------|
|----------------------------------------|
|----------------------------------------|
|-2---0-1-0---2--0-0---2-1-3*-3*-3*-3*-3*|
|-2---0-1-0---2--0-0---2-1---------------|

Chorus:
|---------------------------------------------------------------------------|
|---------------------------------------------------------------------------|
|---------------------------------------------------------------------------|
|--------------------------------5----5---7---------------------------------|
|--2----3----2-----3----2----3---3----3---5---------------------------------|
|--2----3----2-----3----2----3----------------------------------------------|

(All other parts are the main riff, without the harmonics)

************************************

| /   slide up
| \   slide down
| h   hammer-on
| p   pull-off
| ~   vibrato
| *   harmonic
| x   Mute note
| b   Bend
| pb  Pre-bend
| br  Bend release
| pbr Pre-bend release
| brb Bend release bend

************************************
Добавлено: 28.10.2013
Другие материалы по этой песне:

Страница создана 05.03.2012
http://primanota.ru/pleymo/world-chords.htm
Привет, Гость.
Предлагаем пройти революционный курс по гитаре.
Подарок от PrimaNota.Ru, забирай!