PrimaNota.ru - самый крупный в мире бесплатный архив песенных текстов, аккордов, табулатур и нот


Pleasure - One Life - таба, видео

Регистрация Запомнить меня
Войти через:  Facebook Google Twitter Vk Yandex Mail.ru

Pleasure - One Life - таба, видео

Печатать
Просмотров: 59
-------------------------------------------------------------------------------
                             One Life - The Pleasure
-------------------------------------------------------------------------------
Tabbed by: Michael Johnson
E-mail:botkillerwf@gmail.com

Tuning: Standart.
SoLo.

e|-----------------------------------------------------------|
B|-----------------------------------------------------------|
G|--------16p14----------------------------------------------| x2
D|--------------16----12h14--12------------------------------|
A|-------------------------------14--------------------------|
E|-----------------------------------------------------------|

e|----------------------------------------------------------------|
B|----------------------------------------------------------------|
G|---------16p14--------------------------------------------------|
D|---------------16----12h14---12-------12----14b12---------------|
A|----------------------------------14--------------------14------|
E|----------------------------------------------------------------|

e|-----------------------------------------------------------|
B|-----------------------------------------------------------|
G|--------16p14----------------------------------------------| 
D|--------------16----12h14--12------------------------------|
A|-------------------------------14--------------------------|
E|-----------------------------------------------------------|

e|----------------------------------------------------------------------|
B|-----------------------------------------15-----15-----17b15----------|
G|--16p14-----------------------14----16-------16-----16--------16------|
D|---------16-----12h14---16--------------------------------------------|
A|----------------------------------------------------------------------|
E|----------------------------------------------------------------------|

e|---------------------------------------------------------------------------|
B|----15----15----17b15-------------15------17b15----------------------------|
G|-------16----16-------16---14h16------16-----------------------------------| x2
D|---------------------------------------------------------------------------|
A|---------------------------------------------------------------------------|
E|---------------------------------------------------------------------------|

e|------17-----17------17--|
B|---17b----17b-----17b----|
G|-------------------------|
D|-------------------------|
A|-------------------------|
E|-------------------------|

************************************

| /   slide up
| \   slide down
| h   hammer-on
| p   pull-off
| ~   vibrato
| +   harmonic
| x   Mute note
| b   Bend
| pb  Pre-bend
| br  Bend release
| pbr Pre-bend release
| brb Bend release bend

************************************
Добавлено: 23.06.2016
Другие материалы по этой песне:
  • Аккорды и текст

Страница создана 23.06.2016
http://primanota.ru/pleasure/one-life-chords.htm
Привет, Гость.
Предлагаем пройти революционный курс по гитаре.
Подарок от PrimaNota.Ru, забирай!