PrimaNota.ru - самый крупный в мире бесплатный архив песенных текстов, аккордов, табулатур и нот


The Pleasure Fair - Turnaway - бас-таба, видео

Регистрация Запомнить меня
Войти через:  Facebook Google Twitter Vk Yandex Mail.ru

The Pleasure Fair - Turnaway - бас-таба, видео

Печатать
Просмотров: 43
Tabbed by: 6METAL6BASSIST6
E-mail: petergriffinav@gmail.com

Tuning: EADG

G|----------------------------------------------------------------|
D|----2-----------2-----------------------------------------------|
A|3-------3---2-------3---2---------------------------------------|
E|----------------------------3---0-------------------------------|

G|----------------------------------------------------------------|
D|----------------------------------------------------------------|
A|----------------------------------------------------5---3---2---|
E|----------------------------------------------------------------|

G|----------------------------------------------------------------|
D|----------------------------------------------------------------|
A|0-------0-----------------------0-------5-------0---------------|
E|------------3---0-------0---3---------------------------0---3---|

0:13

G|----------------------------------------------------------------|
D|----------------------------------------------------------------|
A|0-------0-----------------------0-------5-------0---------------|
E|------------3---0-------0---3---------------------------0---3---|

G|----------------------------------------------------------------|
D|----------------------------------------------------------------|
A|0-------0-----------------------0-------5-------0-------0---3---|
E|------------3---0-------0---3-----------------------------------|

G|----------------------------------------------------------------|
D|----------------------------------------------------------------|
A|5-------0---5-------0---5---0---1-----------1---0-----------0---|
E|----------------------------------------------------------------|

G|----------------------------------------------------------------|
D|------------------------------------2-----------2---------------|
A|5-----------5-------------------3-------3---2-------3---2-------|
E|----------------3-----------3-------------------------------3---|

G|--------------------------------|
D|--------------------------------|
A|--------------------------------|
E|0-----------------------0---3---|

0:33

G|----------------------------------------------------------------|
D|----------------------------------------------------------------|
A|0-------0-----------------------0-------5-------0---------------|
E|------------3---0-------0---3---------------------------0---3---|

G|----------------------------------------------------------------|
D|----------------------------------------------------------------|
A|0-------0-----------------------0-------5-------0-------0---3---|
E|------------3---0-------0---3-----------------------------------|

G|----------------------------------------------------------------|
D|----------------------------------------------------------------|
A|5-------0---5-------0---5---0---1-----------1---0-----------0---|
E|----------------------------------------------------------------|

G|----------------------------------------------------------------|
D|----------------------------------------------------------------|
A|5-----------5-------------------3-----------3-------------------|
E|----------------3-----------3-------------------1-----------1---|

G|--------------------------------|
D|----------------2---0-----------|
A|2-----------2-----------3---2---|
E|--------------------------------|

0:51

G|----------------------------------------------------------------|
D|----------------------------------------------------------------|
A|0-----------------------0---0---0-----------------------0---0---|
E|----------------------------------------------------------------|

G|----------------------------------------------------------------|
D|----------------------------------------------------------------|
A|0-----------------------0---0---0-----------------------0---0---|
E|----------------------------------------------------------------|

G|----------------------------------------------------------------|
D|----------------------------------------------------------------|
A|0-----------0-------------------0-----------0-----------0---0---|
E|------------------------0---0-----------------------------------|

G|----------------------------------------------------------------|
D|----------------------------------------------------------------|
A|--------------2-------------2-----------------2-----------------|
E|0-------0-------0---0-----------0-------0-------0---0---0---0---|

1:09

G|----------------------------------------------------------------|
D|----------------------------------------------------------------|
A|0-------0-----------------------0-------5-------0---------------|
E|------------3---0-------0---3---------------------------0---3---|

G|----------------------------------------------------------------|
D|----------------------------------------------------------------|
A|0-------0-----------------------0-------5-------0-------0---3---|
E|------------3---0-------0---3-----------------------------------|

G|----------------------------------------------------------------|
D|----------------------------------------------------------------|
A|5-------0---5-------0---5---0---1-----------1---0-----------0---|
E|----------------------------------------------------------------|

G|----------------------------------------------------------------|
D|----------------------------------------------------------------|
A|5-----------5-------------------3-----------3-------------------|
E|----------------3-----------3-------------------1-----------1---|

G|--------------------------------|
D|----------------2---0-----------|
A|2-----------2-----------3---2---|
E|--------------------------------|

1:28

G|----------------------------------------------------------------|
D|----------------------------------------------------------------|
A|0-----------------------0---0---0-----------------------0---0---|
E|----------------------------------------------------------------|

G|----------------------------------------------------------------|
D|----------------------------------------------------------------|
A|0-----------------------0---0---0-----------------------0---0---|
E|----------------------------------------------------------------|

G|----------------------------------------------------------------|
D|----------------------------------------------------------------|
A|0-----------0-------------------0-----------0-----------0---0---|
E|------------------------0---0-----------------------------------|

G|----------------------------------------------------------------|
D|----------------------------------------------------------------|
A|--------------2-------------2-----------------2-----------------|
E|0-------0-------0---0-----------0-------0-------0---0---0---0---|

G|----------------------------------------------------------------|
D|----------------------------------------------------------------| x4 to fadeout.
A|0-------0-----------------------0-------5-------0---------------|
E|------------3---0-------0---3---------------------------0---3---|
Добавлено: 22.05.2016
Другие материалы по этой песне:
  • Аккорды и текст

Страница создана 22.05.2016
http://primanota.ru/pleasure-fair/turnaway-chords.htm
Привет, Гость.
Предлагаем пройти революционный курс по гитаре.
Подарок от PrimaNota.Ru, забирай!