PrimaNota.ru - самый крупный в мире бесплатный архив песенных текстов, аккордов, табулатур и нот


PlayRadioPlay! - Elephants As Big As Whales - таба, видео

Регистрация Запомнить меня
Войти через:  Facebook Google Twitter Vk Yandex Mail.ru

PlayRadioPlay! - Elephants As Big As Whales - таба, видео

Печатать
Просмотров: 79
Elephants As Big As Whales by PlayRadioPlay!
Please comment with corrections.

Standard Tuning.

Capo 3 is recommended for these four bars:

e|---------------------------------------|
B|---------------------------------------|
G|---7--7--7--7-7-7-7-7-7-7-7-7-7-7-7-7--|
D|---8--8--8--8-8-8-8-8-8-8-8-8-8-8-8-8--|
A|-10-10-10-10-6-6-6-6-------------------|
E|---------------------6-6-6-6-3-3-3-3---|

Enjoy!


e|---------------------------------------------------------------|
B|-7-------------------------------------------------------------|
G|--8-8-8-8-8-8-8-8-8--------------------------------------------|
D|---------------------------------------------------------------|
A|---------------------------------------------------------------|
E|---6-6-6-6-6-6-6-6---------------------------------------------|

e|------------------------------------|
B|------------------------------------|
G|-7----------------7-----------------|
D|--8-8-8-8-8-8-8-8--5-5-5-5-5-5-5-5--| x2
A|--------------------6-6-6-6-6-6-6---|
E|---6-6-6-6-6-6-6--------------------|

e|---------------------------------------------------------------|
B|---------------------------------------------------------------|
G|--7-7-7-7-7-7-7--7-7-7-7-7-7-7-7-------------------------------|
D|--8-8-8-8-8-8-8--8-8-8-8-8-8-8-8-------------------------------|
A|-8-8-8-8-8-8-8--6-6-6-6-6-6-6-6--------------------------------|
E|---------------------------------------------------------------|

e|------------------------------------|
B|------------------------------------|
G|-7----------------7-----------------|
D|--8-8-8-8-8-8-8-8--5-5-5-5-5-5-5-5--| x5
A|--------------------6-6-6-6-6-6-6---|
E|---6-6-6-6-6-6-6--------------------|

e|-----------------------------------------------------------------------|
B|-----------------------------------------------------------------------|
G|--7-7-7-7-7-7-7-7-7-7-7-7-7-7-7-7--7--7--7--7-7-7-7-7-7-7-7-7-7-7-7-7--|
D|--8-8-8-5-5-5-5-5-8-8-8-8-5-5-5-5--8--8--8--8-8-8-8-8-8-8-8-8-8-8-8-8--|
A|-8-8-8-6-6-6-6-6-8-8-8-8-6-6-6-6-10-10-10-10-8-8-8-8-6-6-6-6-6-6-6-6---|
E|-----------------------------------------------------------------------|

e|---------------------------------------|
B|---------------------------------------|
G|---7--7--7--7-7-7-7-7-7-7-7-7-7-7-7-7--|
D|---8--8--8--8-8-8-8-8-8-8-8-8-8-8-8-8--|
A|-10-10-10-10-6-6-6-6-------------------|
E|---------------------6-6-6-6-3-3-3-3---|

e|-----------------------------------------------------------|
B|-----------------------------------------------------------|
G|---7--7--7--7-7-7-7-7-5-5-5-5-5-5-5-5--7--7--7--7-7-7-7-7--|
D|---8--8--8--8-8-8-8-8-7-7-7-7-7-7-7-7--8--8--8--9-8-8-8-8--|
A|-10-10-10-10-6-6-6-6-8-8-8-8-8-8-8-8-10-10-10-10-6-6-6-6---|
E|-----------------------------------------------------------|


e|---------------------------------|
B|---------------------------------|
G|-7--7-7-7-7-7-7-7-7-7-7-7-7-7-7--|
D|--8-8-8-8-8-8-8-8-5-5-5-5-5-5-5--| x2
A|-----------------6-6-6-6-6-6-6---|
E|---6-6-6-6-6-6-6-----------------|

e|--------------------------------------------------|
B|--------------------------------------------------|
G|--5-5-5-5-5-5-5-5--7--7--7-7-7-7-7-7-7-7-7-7-7-7--|
D|--7-7-7-7-7-7-7-7--8--8--8-8-8-8-8-8-8-8-8-8-8-8--|
A|-8-8-8-8-8-8-8-8-10-10-10-8-8-8-6-6-6-6-6-6-6-6---|
E|--------------------------------------------------|


e|---------------------------------|
B|---------------------------------|
G|-7--7-7-7-7-7-7-7-7-7-7-7-7-7-7--|
D|--8-8-8-8-8-8-8-8-5-5-5-5-5-5-5--|
A|-----------------6-6-6-6-6-6-6---|
E|---6-6-6-6-6-6-6-----------------|

e|-------------------------------------------------------|
B|-------------------------------------------------------|
G|--5-5-5-5-5-5-5-5--7--7--7--7-7-7-7-7-7-7-7-7-7-7-7-7--|
D|--7-7-7-7-7-7-7-7--8--8--8--8-8-8-8-8-8-8-8-8-8-8-8-8--|
A|-8-8-8-8-8-8-8-8-10-10-10-10-8-8-8-8-6-6-6-6-6-6-6-6---|
E|-------------------------------------------------------|

e|---------------------------------|
B|---------------------------------|
G|-7--7-7-7-7-7-7-7-7-7-7-7-7-7-7--|
D|--8-8-8-8-8-8-8-8-5-5-5-5-5-5-5--|
A|-----------------6-6-6-6-6-6-6---|
E|---6-6-6-6-6-6-6-----------------|

e|-------------------------------------------------------|
B|-------------------------------------------------------|
G|--5-5-5-5-5-5-5-5--7--7--7--7-7-7-7-7-7-7-7-7-7-7-7-7--|
D|--7-7-7-7-7-7-7-7--8--8--8--8-8-8-8-8-8-8-8-8-8-8-8-8--|
A|-8-8-8-8-8-8-8-8-10-10-10-10-8-8-8-8-6-6-6-6-6-6-6-6---|
E|-------------------------------------------------------|

e|-----------------------------------------------------------------------|
B|-----------------------------------------------------------------------|
G|--7-7-7-7-7-7-7-7-7-7-7-7-7-7-7-7--7--7--7--7-7-7-7-7-7-7-7-7-7-7-7-7--|
D|--8-8-8-5-5-5-5-5-8-8-8-8-5-5-5-5--8--8--8--8-8-8-8-8-8-8-8-8-8-8-8-8--|
A|-8-8-8-6-6-6-6-6-8-8-8-8-6-6-6-6-10-10-10-10-8-8-8-8-6-6-6-6-6-6-6-6---|
E|-----------------------------------------------------------------------|


e|---------------------------------------|
B|---------------------------------------|
G|---7--7--7--7-7-7-7-7-7-7-7-7-7-7-7-7--|
D|---8--8--8--8-8-8-8-8-8-8-8-8-8-8-8-8--|
A|-10-10-10-10-6-6-6-6-------------------|
E|---------------------6-6-6-6-3-3-3-3---|

e|-----------------------------------------------------------|
B|-----------------------------------------------------------|
G|---7--7--7--7-7-7-7-7-5-5-5-5-5-5-5-5--7--7--7--7-7-7-7-7--|
D|---8--8--8--8-8-8-8-8-7-7-7-7-7-7-7-7--8--8--8--9-8-8-8-8--|
A|-10-10-10-10-6-6-6-6-8-8-8-8-8-8-8-8-10-10-10-10-6-6-6-6---|
E|-----------------------------------------------------------|


e|-6~~~~~|
B|-6~~~~~|
G|--7~~~~|
D|---8~~~|
A|---8~~~|
E|-6~~~~~|



| /  slide up
| \  slide down
| h  hammer-on
| p  pull-off
| ~  vibrato
| +  harmonic
| x  Mute note
Добавлено: 08.05.2016
Другие материалы по этой песне:
  • Аккорды и текст

Страница создана 08.05.2016
http://primanota.ru/playradioplay-2/elephants-as-big-as-whales-chords.htm
Привет, Гость.
Предлагаем пройти революционный курс по гитаре.
Подарок от PrimaNota.Ru, забирай!