PrimaNota.ru - самый крупный в мире бесплатный архив песенных текстов, аккордов, табулатур и нот


Play - Erase The Memory - бас-таба, видео

Регистрация Запомнить меня
Войти через:  Facebook Google Twitter Vk Yandex Mail.ru

Play - Erase The Memory - бас-таба, видео

Печатать
Просмотров: 21
Tabbed by: bassm99
E-mail: alanmatthews1966@yahoo.co.uk

Tuning: E, A, D, G

"Erase The Memory" from the album "Red Movies" (1985)
Written by Wayne Kennedy

Intro: (Play Once)

G|--------------------------------------------------------------------------|
D|--------------------------------------------------------------------------|
A|--------------3-----3-----------------------------------------------------|
E|--5--3--5---5---1------1--1--3--------------------------------------------|

Verse: (Play 4 Times)

G|--------------------------------------------------------------------------|
D|--------------------------------------------------------------------------|
A|--------------3-----3-----------------------------------------------------|
E|--5--3--5---5---1------1--1--3--------------------------------------------|

Bridge: (Play 4 Times)

G|--------------------------------------------------------------------------|
D|--------------------------------------------------------------------------|
A|----3-0-5----3-0-5----2-3----2-3------------------------------------------|
E|--5--------5--------1------1----------------------------------------------|

Chorus: (Play Twice)

G|----5---5------8---8-----------------10---10------------------------------|
D|--------------------------8---8-------------------------------------------|
A|--3---3---3--6---6---6-------------8----8----8----------------------------|
E|------------------------6---6---6-----------------------------------------|

Repeat Verse:

Repeat Bridge:

Repeat Chorus: (Play 7 Times)

End: (Chorus Fading Out)

G|----5---5------8---8-----------------10-----------------------------------|
D|--------------------------8---8-------------------------------------------|
A|--3---3---3--6---6---6-------------8--------------------------------------|
E|------------------------6---6---6-----------------------------------------|
Добавлено: 17.06.2016
Другие материалы по этой песне:
  • Аккорды и текст

Страница создана 17.06.2016
http://primanota.ru/play/erase-memory-chords.htm
Привет, Гость.
Предлагаем пройти революционный курс по гитаре.
Подарок от PrimaNota.Ru, забирай!