PrimaNota.ru - самый крупный в мире бесплатный архив песенных текстов, аккордов, табулатур и нот


Play Radio Play - Oh Happy Neighbour - таба, видео

Регистрация Запомнить меня
Войти через:  Facebook Google Twitter Vk Yandex Mail.ru

Play Radio Play - Oh Happy Neighbour - таба, видео

Печатать
Просмотров: 128
Уроки эстрадного вокала в Санкт-Петербурге
Oh, Happy Neighbour! – PlayRadioPlay!

Intro
e|------------|
b|------------|
g|----12-10---| x4
d|-13-12-10---|
a|-13-10-8----|
e|-11---------|

These walls have eyes and ears and souls..
e|------------|
b|------------|
g|------------|  x2
d|-13-13-5-3--|
a|-13-13-5-3--|
e|-11-11-3-1--|

We see the beauty in the
e|------------|
b|------------|
g|------------|
d|-8--10------|
a|-8--10------|
e|-6--8-------|

Dischord.. (Same as intro)
e|------------|
b|------------|
g|----12-10---| x2
d|-13-12-10---|
a|-13-10-8----|
e|-11---------|

This lonely king walks through his land..
e|------------|
b|------------|
g|------------|  x2
d|-13-13-5-3--|
a|-13-13-5-3--|
e|-11-11-3-1--|

We see the beauty in the dischord..
e|---------------|
b|---------------|
g|---------------|
d|-8--10--5--3---|
a|-8--10--5--3---|
e|-6--8—--3--1---|

Getting you off, you off, we could be happy..
e|-----------|
b|-----------|
g|-----------| x2
d|-13-8-3-5--|
a|-13-8-3-5--|
e|-11-6-1-3—-|

e|-----
b|-----
g|-----  (Or repeat verse and chorus)
d|-13--
a|-13--
e|-11—-
Добавлено: 20.06.2012
Другие материалы по этой песне:
  • Аккорды и текст

Страница создана 20.06.2012
http://primanota.ru/play-radio-play/oh-happy-neighbour-chords.htm
Привет, Гость.
Предлагаем пройти революционный курс по гитаре.
Подарок от PrimaNota.Ru, забирай!