PrimaNota.ru - самый крупный в мире бесплатный архив песенных текстов, аккордов, табулатур и нот


Platinum Head - Slim To None - таба, видео

Регистрация Запомнить меня
Войти через:  Facebook Google Twitter Vk Yandex Mail.ru

Platinum Head - Slim To None - таба, видео

Печатать
Просмотров: 70
SLIM TO NONE
As recorded by Platinum Head



Transcribed by Helbard AlkhassAdeh

 Words and Music by Platinum Head
Arranged by Platinum Head
 

Gtr I (E A D G B E) - 'Standard Tuning'


 4/4
  Gtr I
|-------------------------|
|-------------------------|
|-9-9-9-9-9-9-9-9-7-7-7-7-|
|-9-9-9-9-9-9-9-9-7-7-7-7-|
|-7-7-7-7-7-7-7-7-5-5-5-5-|
|-------------------------|


|-----------------------------|
|-----------------------------|
|-9-9-9-9-9-9-9-9-14-15-16-17-|
|-9-9-9-9-9-9-9-9-14-15-16-17-|
|-7-7-7-7-7-7-7-7-12-13-14-15-|
|-----------------------------|


|----------------------------------------------------------------------|
|----------------------------------------------------------------------|
|-------0-------0-------0-------0-------0-------0-------0--------------|
|-----0-------0-------0-------6-------0-------0-------0-------0-----0--|
|---7-------7-------7-------7-------7-------7-------7-------7-----5----|
|-0-------7-------6-------5-------0-------7-------6-------5-----3------|


|-----------------------------|
|-----------------------------|
|-----------------------------|
|-2-2-7-7-5-5-9-9-9-9-8-8-8-8-|
|-2-2-7-7-5-5-9-9-9-9-8-8-8-8-|
|-0-0-5-5-3-3-7-7-7-7-6-6-6-6-|




--------------------------------------------------------------------------------


Tablature Legend
----------------
 h   - hammer-on
 p   - pull-off
 b   - bend
 pb  - pre-bend
 r   - bend release (if no number after the r, then
release immediately)
 /\  - slide into or out of (from/to "nowhere")
 s   - legato slide
 S   - shift slide
 n> - natural harmonic
[n]  - artificial harmonic
n(n) - tapped harmonic
 ~   - vibrato
 tr  - trill
 T   - tap
 TP  - trem. picking
 PM  - palm muting
\n/  - tremolo bar dip; n = amount to dip
 \n  - tremolo bar down
 n/  - tremolo bar up
/n\  - tremolo bar inverted dip
 =   - hold bend; also acts as connecting device for
hammers/pulls
  > - volume swell (louder/softer)
 x   - on rhythm slash represents muted slash
 o   - on rhythm slash represents single note slash

Misc Legend
-----------
 |  - bar
||  - double bar
||o - repeat start
o|| - repeat end
*|  - double bar (ending)
 :  - bar (freetime)
 $  - Segno
 &  - Coda
Tempo markers -  E/E./Q/Q./H/H.> = BPM(8/16=s8/s16),
where s8 = swing 8ths, s16 = swing 16ths



     
Добавлено: 15.06.2013
Другие материалы по этой песне:
  • Аккорды и текст

Страница создана 15.06.2013
http://primanota.ru/platinum-head/slim-to-none-chords.htm
Привет, Гость.
Предлагаем пройти революционный курс по гитаре.
Подарок от PrimaNota.Ru, забирай!