PrimaNota.ru - самый крупный в мире бесплатный архив песенных текстов, аккордов, табулатур и нот


Platinum Head - Sad Disguise - таба, видео

Регистрация Запомнить меня
Войти через:  Facebook Google Twitter Vk Yandex Mail.ru

Platinum Head - Sad Disguise - таба, видео

Печатать
Просмотров: 76
Уроки эстрадного вокала в Санкт-Петербурге
"Sad Disguise"

Music and Lyrics by Platinum Head

Tab written by Helbard AlkhassAdeh

The Distortion is straight forward with a little chorus added.

	Main Riff
E -------------------------------------------------------
B -------------------------------------------------------
G -2-2-----------2-2-----------2-2-----------2-2---------
D -2-2-----------2-2-----------2-2-----------2-2---3-----
A -----x-x-0-3-5-----x-x-0-3-5-----x-x-0-3-5---------5---
E -----------------------------------------------3-----3-
   I've got this feeling..........


	Main Riff 2nd Verse
E -------------------------------------------------------
B -------------------------------------------------------
G -2-2-------5-7-2-2-------5-7-2-2-------5-7-2-2---------
D -2-2-----------2-2-----------2-2-----------2-2---------
A -----0-0-0---------0-0-0---------0-0-0---------3-3-3-5-
E -------------------------------------------------------


	Bridge
   G G G#  A         G G G#  A
E -------------------------------------------------------
B -------------7-5--------------x-7-x-7------------------
G -------------7-5-7------------x-7-x-7------------------
D -5-5-6-6-7---7-5-7-5-5-6-6-7--x---x--------------------
A -5-5-6-6-7------H--5-5-6-6-7---------------------------
E -3-3-4-4-5---------3-3-4-4-5---------------------------
   Til I can see.........


	Chorus
   D#  D   A         D#  D   A
E -------------------------------------------------------
B ---------0-----------------0---------------------------
G -8-8-7-7-2--8-7-8--8-8-7-7-2--x-14-x-14----------------
D -8-8-7-7-2--8-7-8--8-8-7-7-2--x-14-x-14----------------
A -6-6-5-5-----------6-6-5-5-----------------------------
E -------------------------------------------------------
   I can see you dressed........



     
Добавлено: 11.10.2013
Вам также может быть интересно:
Другие материалы по этой песне:
  • Аккорды и текст

Страница создана 20.08.2013
http://primanota.ru/platinum-head/sad-disguise-chords.htm
Привет, Гость.
Предлагаем пройти революционный курс по гитаре.
Подарок от PrimaNota.Ru, забирай!