PrimaNota.ru - самый крупный в мире бесплатный архив песенных текстов, аккордов, табулатур и нот


Platinum Head - Pileup - таба, видео

Регистрация Запомнить меня
Войти через:  Facebook Google Twitter Vk Yandex Mail.ru

Platinum Head - Pileup - таба, видео

Печатать
Просмотров: 60
PILEUP
As recorded by Platinum Head



Transcribed by Helbard AlkhassAdeh

 Words and Music by Platinum Head
Arranged by Platinum Head
 

Gtr I (E A D G B E) - Standard Tuning


 4/4
  Gtr I
	Intro/Main Riff
                                     PM
|------------------------------------------|
|------------------------------------------|
|-9---------10S9---------9-----------------|
|-9-9-9-9-9--9-9-9-9-9-9-9-9-9-9-9-9-9-9-9-|
|-7-7-7-7-7--7-7-7-7-7-6S7-7-7-7-6S7-7-6S7-|
|------------------------------------------|


	Chorus
|----------------------------------|
|----------------------------------|
|-----------------------9-9-10S9-9-|
|----4-4-2-4----5-5-3-5-9-9--9-9-9-|
|-/2---------/3---------7-7--7-7-7-|
|----------------------------------|


	Bridge
                           PM   PM
|-----------------------12---10-----------|
|-----10---12---12-10-------------12-10---|
|-9-9----9----9-------9----9----9-------9-|
|-----------------------------------------|
|-----------------------------------------|
|-----------------------------------------|


	Interlude
|--------------------------|
|---10-10-10---10-10-12-10-|
|-9--9--9--9-9--9--9-----9-|
|--------------------------|
|--------------------------|
|--------------------------|




--------------------------------------------------------------------------------


Tablature Legend
----------------
 h   - hammer-on
 p   - pull-off
 b   - bend
 pb  - pre-bend
 r   - bend release (if no number after the r, then
release immediately)
 /\  - slide into or out of (from/to "nowhere")
 s   - legato slide
 S   - shift slide
 n> - natural harmonic
[n]  - artificial harmonic
n(n) - tapped harmonic
 ~   - vibrato
 tr  - trill
 T   - tap
 TP  - trem. picking
 PM  - palm muting
\n/  - tremolo bar dip; n = amount to dip
 \n  - tremolo bar down
 n/  - tremolo bar up
/n\  - tremolo bar inverted dip
 =   - hold bend; also acts as connecting device for
hammers/pulls
  > - volume swell (louder/softer)
 x   - on rhythm slash represents muted slash
 o   - on rhythm slash represents single note slash

Misc Legend
-----------
 |  - bar
||  - double bar
||o - repeat start
o|| - repeat end
*|  - double bar (ending)
 :  - bar (freetime)
 $  - Segno
 &  - Coda
Tempo markers -  E/E./Q/Q./H/H.> = BPM(8/16=s8/s16),
where s8 = swing 8ths, s16 = swing 16ths






     
Добавлено: 07.06.2013
Другие материалы по этой песне:
  • Аккорды и текст

Страница создана 07.06.2013
http://primanota.ru/platinum-head/pileup-chords.htm
Привет, Гость.
Предлагаем пройти революционный курс по гитаре.
Подарок от PrimaNota.Ru, забирай!