PrimaNota.ru - самый крупный в мире бесплатный архив песенных текстов, аккордов, табулатур и нот


Platinum Head - Gold Digger - аккорды и текст, видео

Регистрация Запомнить меня
Войти через:  Facebook Google Twitter Vk Yandex Mail.ru

Platinum Head - Gold Digger - аккорды и текст, видео

Печатать
Просмотров: 80
Gold Digger
Platinum Head
"Gold Digger"

Music and Lyrics by Platinum Head

Tab and all of the following work written by Helbard AlkhassAdeh

www.platinumhead.com

The Distortion is dirty / Bridge is played clean.



	Main Riff
E -------------------------------------------------------
B -------------------------------------------------------
G -2-2-2-5-5-5-4-4-4-3-3-3-------------------------------
D -2-2-2-5-5-5-4-4-4-3-3-3-------------------------------
A -0-0-0-3-3-3-2-2-2-1-1-1-------------------------------
E -------------------------------------------------------
   You watched and you waited for this...... 
	
	Chorus
E ------------3------------------------------------------
B ------------3------------------------------------------
G -6---7-7-7--4-----7---7--------------------------------
D -7---8-8-8--5-----8---8--------------------------------
A -7---8-8-8--5---8-8-8-8--------------------------------
E -5---6-6-6--3---6-6-6-6--------------------------------
     How high will you go?.....

	Bridge #1
E -------------------------------------------------------
B -------------------------------------------------------
G -------------------------------------------------------
D -7-7-7-7-8-8-8-8-9-9-9-9-10-10-10-10-------------------
A -7-7-7-7-8-8-8-8-9-9-9-9-10-10-10-10-------------------
E -5-5-5-5-6-6-6-6-7-7-7-7-8--8--8--8--------------------

	Bridge #2
E -------------------------------------------------------
B -------------------------------------------------------
G -----7-----0-7-----0-----7-----------------------------
D ---7-----7-------7-----7-------------------------------
A -5-----5-------5-----5---------------------------------
E -------------------------------------------------------

	Last Part
E -------------------------------------------------------
B -------------------------------------------------------
G -2--2--2-2--2------------------------------------------
D -2--2--2-2--2------------------------------------------
A -------------------------------------------------------
E -------------------------------------------------------
     
Добавлено: 02.06.2013
Другие материалы по этой песне:
  • Аккорды и текст

Страница создана 02.06.2013
http://primanota.ru/platinum-head/gold-digger-chords.htm
Привет, Гость.
Предлагаем пройти революционный курс по гитаре.
Подарок от PrimaNota.Ru, забирай!