PrimaNota.ru - самый крупный в мире бесплатный архив песенных текстов, аккордов, табулатур и нот


Platinum Head - Dig - аккорды и текст, видео

Регистрация Запомнить меня
Войти через:  Facebook Google Twitter Vk Yandex Mail.ru

Platinum Head - Dig - аккорды и текст, видео

Печатать
Просмотров: 75
Dig
Platinum Head
"Dig"

Music and Lyrics by Platinum Head

Tab and all of the following work written by Helbard AlkhassAdeh

Intro Riff is played clean / The verse has heavy distortion / 
Chorus guitar is cleaner than verse / Bridge is a repeat of the 
first measure of the intro riff.


	Intro Riff
E -------------------------------------------------------
B -------------------------------------------------------
G -----9-------9-----9-----------------------------------
D -------------------------9-7---------------------------
A -7-7---7-7-7---7-7---7-7--P----------------------------
E -------------------------------------------------------
            Hell is right here, heaven so far away....

	Verse
   D D    D D    E E     E E E E
E -------------------------------------------------------
B -------------------------------------------------------
G -7-7-x--7-7-x--9-9-x-x-9-9-9-9-------------------------
D -7-7-x--7-7-x--9-9-x-x-9-9-9-9-------------------------
A -5-5-x--5-5-x--7-7-x-x-7-7-7-7-------------------------
E -------------------------------------------------------
         And the teachers well they know........ 

	Guitar 1 during Chorus
   B B B E
E -------------------------------------------------------
B -------------------------------------------------------
G -4-4-4-9-----------------------------------------------
D -4-4-4-9-----------------------------------------------
A -2-2-2-7-----------------------------------------------
E -------------------------------------------------------
   I take the world and give

	Guitar 2 during Chorus
E -------------------------------------------------------
B -------------------------------------------------------
G -11-11-13-11-11--9-9-11-9-9----------------------------
D -11-11---P---11--9-9---P--9----------------------------
A -------------------------------------------------------
E -------------------------------------------------------

	Guitar 2 during Bridge
   C  D  E	
E -------------------------------------------------------
B -------------------------------------------------------
G -5--7--9-----------------------------------------------
D -5--7--9-----------------------------------------------
A -3--5--7-----------------------------------------------
E -------------------------------------------------------
     
Добавлено: 21.08.2013
Другие материалы по этой песне:
  • Аккорды и текст

Страница создана 21.08.2013
http://primanota.ru/platinum-head/dig-chords.htm
Привет, Гость.
Предлагаем пройти революционный курс по гитаре.
Подарок от PrimaNota.Ru, забирай!