PrimaNota.ru - самый крупный в мире бесплатный архив песенных текстов, аккордов, табулатур и нот


Platinum Blonde - Doesnt Really Matter - аккорды и текст, таба, видео

Регистрация Запомнить меня
Войти через:  Facebook Google Twitter Vk Yandex Mail.ru

Platinum Blonde - Doesnt Really Matter - аккорды и текст, таба, видео

Печатать
Просмотров: 159
Doesnt Really Matter
Platinum Blonde
Platinum Blonde-Doesn't really Matter
Tabbed by: Kenny Perry
Email:alibabasing@hotmail.com

Intro/ Main Riff/ with variations throughout song 
e|---------------------------------------------------------------------------|
B|---------------------------------------------------------------------------|
G|----13--14--13--------13--14--13-----9--11--9-----9--11--9-----------------|
D|1111--11--11--11--1111--11--11--11-99--9--9---9-99--9--9---9---------------|
A|---------------------------------------------------------------------------|
E|---------------------------------------------------------------------------|

C#                   A
It's been a hard day in the city
F#m            B                    C#
It affects you in the most peculiar way
               A
Dull day don't seem pretty
F#m        B                    A
We've said all that there is to say
                   Ab             
And if you were to ask me questions
C#        F#             A
You don't really want to know
        B                      C#  A        
Your concern is just for show 
         F#m        B
just for show oh oh oh

  
C#                    A
Your name's a number, just press a button
F#m                            B                    
Your memories lost but they've not forgotten
C#                    A
They try to break our lust for passion
F#m                       B                  A
They try to tell us that it's not in fashion
                    Ab
And if you were' to ask me questions
C#        F#             A
What are we fighting-for?
        B                      
We're just breaking down the door


(Chorus)
C#                A
It doesn't really matter
F#m       B                C#      
I've been through this all before
                  A     F#m       B             
It doesn't really matter


C#                        A
They fight in England and Northern Ireland
F#m             B              C#
The police they try to hold us still
                  A 
They can bleed us and they can feed us
F#m          B                         A
But you know they'll never control our will
                    Ab
And if you were to ask that question
C#   F#              A
What are we fighting for? 
      B
We're breaking down the door.

(Chorus) X 2

Solo
e|---------------11----14----11----------------------------------------------|
B|---------12-------12----12----12----12-14----------------------------------|
G|---13-------13-------------------13-------13-131314141313141413141314131413|
D|11----11-------------------------------------111111111111111111111111111111|
A|---------------------------------------------------------------------------|
E|---------------------------------------------------------------------------|

DRUM SOLO (palm mute single C# note over and over) (D string 11th fret)
Main Riff

C#                A
It doesn't really matter
F#m               B                         
It doesn't really matter
C#                A
It doesn't really matter (no no)
F#m               B                         
It doesn't really matter (at all)
C#                A
It doesn't really matter (at all)
F#m               B                         
It doesn't really matter (it doesn't matter to me)
C#                A
It doesn't really matter (no no no)
F#m               B                         
It doesn't really matter
C#                A
It doesn't really matter
F#m               B      C#            A             
It doesn't really matter matter matter matter matter 
F#            B             C#                                 
Matter matter matter matter matter matter Etc Etc.

Добавлено: 22.07.2012
Другие материалы по этой песне:
  • Аккорды и текст

Страница создана 09.07.2012
http://primanota.ru/platinum-blonde/doesnt-really-matter-chords.htm
Привет, Гость.
Предлагаем пройти революционный курс по гитаре.
Подарок от PrimaNota.Ru, забирай!