PrimaNota.ru - самый крупный в мире бесплатный архив песенных текстов, аккордов, табулатур и нот


Plants And Animals - Feedback In The Field - таба, видео

Регистрация Запомнить меня
Войти через:  Facebook Google Twitter Vk Yandex Mail.ru

Plants And Animals - Feedback In The Field - таба, видео

Печатать
Просмотров: 125
Уроки эстрадного вокала в Санкт-Петербурге
Plants and Animals  -  Feedback In The Field

Pretty basic outline of the song. Any corrections of modifications would be awesome to hear.
Stuartmc5@hotmail.com


Chords:

Am                     -   -  2  2  1  --|
G6                    3   2  -  -  -  ---|
C                  -   3  2  -  1  ------|
Cadd9            -   3  2  -  3  --------|

Am						G6		C		Cadd9
I can feel the planets at work
Am		     G6	C		Cadd9
I can feel them moving 					Oh

Am						G6		C		Cadd9
There's something in the air tonight
Am		     G6	  C		Cadd9
the winter birds returning


Am                                		     G6                  C	Cadd9
And the feedback in the fields when the mating song begins
Am				G6                  C	Cadd9
Like animals, they play ....


-Riff 1-

Am				G6		C		Cadd9
I can feel it changing inside
              Am 			G6		C		Cadd9
It's like a weight has been lifted 					Oh

Am 						G6		C		Cadd9
There's something that's controlling me
Am				 G6		C		Cadd9
Let the moon turn the tides

(Alright!)

Am                                		     G6                  C	Cadd9
The feedback in the fields when the mating song begins
Am 				G6                  C	  Cadd9
Like animals, they play .....

Riff 1: This is more of a guideline, so play around with it

---------------------------------------------------------------------------------|
---------------------------------------------------------------------------------|
---------------------------------------------------------------------------------|
-----/7-------5---7---5---7---5---7---0---0---0---/7-----------------------------|
---------------------------------------------------------------------------------|
---------------------------------------------------------------------------------|


---------------------------------------------------------------------------------|
---------------------------------------------------------------------------------|
---------------------------------------------------------------------------------|
-----/7-------5---7---5---7---5---7---/2---2---0---0---0-------------------------|
-------------------------------------------------------------------0-------------|
---------------------------------------------------------------------------------|


Riff 2:
--------------------------------------------------------------------------------|
-------8-----8------------------------------------------------------------------|
---/9-----/9-----9---7--5—7^--5--7----------/2---0---0--------------------------|
--------------------------------------------------------------------------------|
--------------------------------------------------------------------------------|
--------------------------------------------------------------------------------|

Repeat around

--------------------------------------------------------------------------------|
--------------------------------------------------------------------------------|
-------/2-/2--------------------------------------------------------------------|
--------------------------------------------------------------------------------|
--------------------------------------------------------------------------------|
--------------------------------------------------------------------------------|
Добавлено: 25.04.2012
Другие материалы по этой песне:
  • Аккорды и текст

Страница создана 25.04.2012
http://primanota.ru/plants-and-animals/feedback-in-the-field-chords.htm
Привет, Гость.
Предлагаем пройти революционный курс по гитаре.
Подарок от PrimaNota.Ru, забирай!